Oops, an error
Loading. Please wait.

Nothing But A Good Time Tab

version 1
version 1

Whole song

Interactive

157,493 views 123 this week
8 commentsread comments
1 2 3 4 5
x 27
add to favorites
launch autoscroll
font size
0
reset
how to read this tab
guitar tuner
Autoscroll
slow
fast
+/-
esc
set tempo
stop
Help us to improve Ultimate-Guitar.com Take our survey!
×
Tuning
D# G# C# F# A# D#
BRET

[intro]

D#||-----|-------------------------------|
A#||-14--|--14----15--14--15--14--0--14--|
F#||-14--|--14----14--14--14--14--0--14--|
C#||-14--|--14----16--14--16--14--0--14--|
G#||-----|-------------------------------|
D#||-----|-------------------------------|

D#|---------------------------3--|-----------------2--|
A#|----------------15--14--0--3--|--------------3--3--|
F#|------------14--14--14--0--0--|--------------0--2--|
C#|----14--14--14--16--14--0--0--|--------------0--0--|
G#|----15--16-----------------x--|--------------------|
D#|---------------------------3--|--------------------|
at the last time of intro only

D#|---------------------------------------------------|
A#|---------------------------------------------------|
F#|---2--2--2--2--------------------------------------|
C#|---2--2--2--2--------------------------------------|
G#|---0--0--0--0--------------------------------------|
D#|---------------------------------------------------|


guitar 2
c.c.
lead

D#|------------------------------------------------------------------|
A#|----------14----14--------14----14~~------14-----x--------0-------|
F#|----------14-16-14--------14--x-14~~------14-16-14--/x(0)-0-------|
C#|----------14-14-14--16/17-14--x-----15-16-14-16-14--/x(0)---------|
G#|-x-x--------------------------------------------------------------|
D#|-x-x-22/----------------------------------------------------------|

                                        A chord
D#|--14-14-14-14--------------------------------------|
A#|--15-15-15-15-----5~r3------4b---------------------|
F#|-----------14-14/--------------2~~~~--2-(2)fade~~--|
C#|---------------------------------------------------|
G#|---------------------------------------------------|
D#|---------------------------------------------------|

after intro finished


[Verse]

D#|----------------------|------------------------3---2-|
A#|--14----14/-----------|----14--15----15--14----3---3-|
F#|--14----14/-----------|----14--14----14--14----0---2-|
C#|--14----14/-----------|----14--16----16--14----0---0-|
G#|----------------------|------------------------x-----|
D#|----------------------|------------------------3-----|


[Riff & Chorus]

D#||-----|-------------------------------|
A#||-14--|--14----15--14--15--14--0--14--|
F#||-14--|--14----14--14--14--14--0--14--|
C#||-14--|--14----16--14--16--14--0--14--|
G#||-----|-------------------------------|
D#||-----|-------------------------------|

D#|---------------------------3--|-----------------2--|
A#|----------------15--14--0--3--|--------------3--3--|
F#|------------14--14--14--0--0--|--------------0--2--|
C#|----14--14--14--16--14--0--0--|--------------0--0--|
G#|----15--16-----------------x--|--------------------|
D#|---------------------------3--|--------------------|


[Solo]

D#|--22b-------22b---22b---22b---|--22r---------------------17-|
A#|------------------------------|----------22~-------19/20----|
F#|------------------------------|-----------------------------|
C#|------------------------------|-----------------------------|
G#|------------------------------|-----------------------------|
D#|------------------------------|-----------------------------|

D#|--19-17-------17----------------------------------|--------------------|
A#|--------20-19----20-19p17-20-19-17----17----------|--------------------|
F#|-----------------------------------19----18-18p16-|--18~---------------|
C#|--------------------------------------------------|--------------------|
G#|--------------------------------------------------|--------------------|
D#|--------------------------------------------------|--------------------|

D#|------------------------|-----------------------|
A#|------------------------|--17b------------------|
F#|--17----17b-14----------|----------17--------0--|
C#|------------------------|-----------------------|
G#|------------------------|-----------------------|
D#|------------------------|-----------------------|

D#|------------------------------------------|----------------------|
A#|------------------------------------------|----------------------|
F#|-----------17~-----------17~-----------17/|--18~-----------x--0--|
C#|--19p17---------19p17---------19p17-------|----------------x-----|
G#|--------19------------19------------19----|----------------x-----|
D#|------------------------------------------|----------------------|

D#|-------------------------------------------|
A#|-------------------------------------------|
F#|-----------------5h7h9-------------6h7h9/--|
C#|-----------4h5h7-------------5h7h9---------|
G#|-----4h5h7-------------5h7h9---------------|
D#|--5----------------------------------------|

D#|--------17----------------17----------------|
A#|-----------------17----------------17-------|
F#|--17h18----17h18----17h18----17h18----------|
C#|--------------------------------------19~---|
G#|--------------------------------------------|
D#|--------------------------------------------|

D#|--------------------------------------|------------------------|
A#|--15p14-------17-15-14----17b---17b---|--17~-------------------|
F#|--------16-14----------16-------------|------------14/------0--|
C#|--------------------------------------|------------14/---x--0--|
G#|--------------------------------------|------------------x-----|
D#|--------------------------------------|------------------------|

D#|------17-----------17-----------17------------------------|
A#|---------20p17--------20p17--------20p17------17h20p17----|
F#|--19b----------19b----------19b----------19------------19b|
C#|----------------------------------------------------------|
G#|----------------------------------------------------------|
D#|----------------------------------------------------------|

D#|-----------------------------------------------------|
A#|--20p17----20p17----20p17----20p17----17-20p17----17-|
F#|--------19b------19b------19b------19b---------19b---|
C#|-----------------------------------------------------|
G#|-----------------------------------------------------|
D#|-----------------------------------------------------|

D#|--20-19-17-19-17-----------------------------------------------------|
A#|-----------------20-19p17-17h19p17-17----------------------------20~-|
F#|--------------------------------------19-17-17h19p17-17-16-----------|
C#|---------------------------------------------------------------------|
G#|-----------------------------------------------------------19/20-----|
D#|---------------------------------------------------------------------|


[Outro]

D#|------|------|------|------|------|------|------|------|----------------------|
A#|------|------|------|------|------|------|------|------|----------------------|
F#|------|------|------|------|------|------|------|------|----------2~----------|
C#|------|------|------|------|------|------|------|------|--------x-------------|
G#|------|------|------|------|------|------|------|------|------x---------------|
D#|------|------|------|------|------|------|------|------|----------------------|

D#|---------------------|------------------|--------------------------------|
A#|----------------x----|------------------|--------------------------------|
F#|------14~-------x----|------------------|----------14--16--16r---14--16b-|
C#|---------------------|------------------|----14/16-----------------------|
G#|---------------------|------------------|--------------------------------|
D#|---------------------|------------------|--------------------------------|

D#|-------------------------|----------------------------|-------------------|
A#|-------------------------|------17b---17--14----------|----------------8~-|
F#|----16r---16b---16r---x--|--------------------16b-14~-|-------------------|
C#|-------------------------|----------------------------|-------------------|
G#|-------------------------|----------------------------|-------------------|
D#|-------------------------|----------------------------|-------------------|

D#|-----------------------------------|------------------------------|
A#|------8r---8-7-5-------------------|------------------------------|
F#|-----------------7r--5---7p6p5h6p5-|------------------------------|
C#|-----------------------7-----------|--7--------------7---5~-------|
G#|-----------------------------------|-----7-6-5-4---4--------------|
D#|-----------------------------------|-------------5-----5----------|

D#|----------------------||
A#|----------------------||
F#|----------------------||
C#|--0/5/----------------||
G#|----------------------||
D#|----------------------||



************************************

| x  Dead note
| h  Hammer-on
| p  Pull-off
| r  Release
| b  Bend
| /  Slide up
| ~  Vibrato

************************************
Suggest correction
comments
print report bad tab
8 comments total. Showing first comments.
0 reply
hepzibahbaptist 478 Apr 20, 2006 07:09 PM

awesome tab awesome song

0 reply
Fawnzee 10 Jun 05, 2006 08:04 PM

yes u got that right awesome song great tab too good job man

0 reply
zep_n_gun 112 Oct 16, 2007 11:54 AM

The chorus isnt completly right. Its not the same as the begging riff just listen to the song hard then youll figure it out.

guest
You may want to rate the tab now too:
select rating
Wanna post a correction for this tab? Suggest correction