Oops, an error
Loading. Please wait.

Nothing But A Good Time Bass Tab

version 2
version 2

Whole song

Interactive

52 views 9 this week
no commentswrite comment
1 2 3 4 5
3 more votes to show rating
add to favorites
launch autoscroll
font size
0
reset
guitar tuner
Autoscroll
slow
fast
+/-
esc
set tempo
stop
Help us to improve Ultimate-Guitar.com Take our survey!
×
[Intro]
                       
G|----------------------------------|     |---------|
D|*--------------------------------*|     |---------|
A|*-----------------------------4-4*|     |---------|
E|----4-4-----4-4------2-2----------|(x2) |-4-2-0-2-|


[Verse 1]

G|-------------------------------------------------------------|
D|-------------------------------------------------------------|
A|--------------------------------------------4-4-4-4-4-4-4-4-4|
E|4-4-4-4-4-4-4-4-4-4-4-4-4-4-4-2-2-2-2-2-2-2------------------|

G|---------------------------------------------------------------|
D|---------------------------------------------------------------|
A|---------------------------------------------4-4-4-4-4-4-4-4---|
E|-4-4-4-4-4-4-4-4-4-4-4-4-4-4-4-2-2-2-2-2-2-2-----------------4-|


[Verse 2]

G|---------------------6\-| 
D|*--6\-------4\---------*|
A|*--------------------4\*|
E|---4\-------2\----------|(x2)


[Verse 1]

G|-------------------------------------------------------------|
D|-------------------------------------------------------------|
A|--------------------------------------------4-4-4-4-4-4-4-4-4|
E|4-4-4-4-4-4-4-4-4-4-4-4-4-4-4-2-2-2-2-2-2-2------------------|

G|-------------------------------------------------------------------|
D|-------------------------------------------------------------------|
A|---------------------------------------------4-4-4-4-4-4-4-4-------|
E|-4-4-4-4-4-4-4-4-4-4-4-4-4-4-4-2-2-2-2-2-2-2------------------0-2-4|


[Chorus]

G|----------------------------------------------------------------|
D|----------------------------------------------------------------|
A|------------------------------4---4-4-4-4-----------------------|
E|4-4-4-4-4-4-4-2---2-2-2-2-2-2-------------0-2-4---4-4-4-4-4-4-4-|

G|-------------------------------------------------|
D|-------------------------------------------------|
A|------------------------------4---4-4-4-4--------|
E|4-4-4-4-4-4-4-2---2-2-2-2-2-2-------------0-2-4--|


[Verse 2]

G|----------------------6\--|     |---------|
D|*-6\-------4\------------*|     |---------|
A|*---------------------4\-*|     |---------|
E|--4\-------2\-------------|(x2) |-4-2-0-2-|


[Verse 1]

G|-------------------------------------------------------------|
D|-------------------------------------------------------------|
A|--------------------------------------------4-4-4-4-4-4-4-4-4|
E|4-4-4-4-4-4-4-4-4-4-4-4-4-4-4-2-2-2-2-2-2-2------------------|

G|---------------------------------------------------------------------|
D|---------------------------------------------------------------------|
A|---------------------------------------------4-4-4-4-4-4-4-4---------|
E|-4-4-4-4-4-4-4-4-4-4-4-4-4-4-4-2-2-2-2-2-2-2------------------4-2-0-2|


[Chorus]

G|----------------------------------------------------------------|
D|----------------------------------------------------------------|
A|------------------------------4---4-4-4-4-----------------------|
E|4-4-4-4-4-4-4-2---2-2-2-2-2-2-------------0-2-4---4-4-4-4-4-4-4-|

G|-------------------------------------------------|
D|-------------------------------------------------|
A|------------------------------4---4-4-4-4--------|
E|4-4-4-4-4-4-4-2---2-2-2-2-2-2-------------0-2-4--|


[Bridge]

G|---------------------6h---------------|     |---------|
D|6h----------4h------------------6h----|     |---------|
A|--------------------------------------|     |---------|
E|--------------------------------------|(x2) |-4-0-2-4-|


[Solo]

G|----------------------------------------------------------------|
D|----------------------------------------------------------------|
A|------------------------------4---4-4-4-4-----------------------|
E|4-4-4-4-4-4-4-2---2-2-2-2-2-2-------------0-2-4---4-4-4-4-4-4-4-|(x3)


(Rest from 2:51 to 3:05)


[Outro]

G|----------------------------------------------------------------|
D|----------------------------------------------------------------|
A|------------------------------4---4-4-4-4-----------------------|
E|4-4-4-4-4-4-4-2---2-2-2-2-2-2-------------0-2-4---4-4-4-4-4-4-4-|(x3)

G|-------------------------------------------------|
D|-------------------------------------------------|
A|------------------------------4---4-4-4-4--------|
E|4-4-4-4-4-4-4-2---2-2-2-2-2-2-------------0-2-4--|



************************************

| x  Dead note
| h  Hammer-on
| \  Slide down

************************************
Suggest correction
Give kudos to tab author, rate the tab!
1 2 3 4 5
comments
print report bad tab
guest
You may want to rate the tab now too:
select rating
Wanna post a correction for this tab? Suggest correction