Oops, an error
Loading. Please wait.

So Tell Me Why Tab

version 1
version 1

Whole song

Interactive

5,407 views 3 this week
1 commentread comment
1 2 3 4 5
x 4
add to favorites
launch autoscroll
font size
0
reset
how to read this tab
guitar tuner
Autoscroll
slow
fast
+/-
esc
set tempo
stop
Help us to improve Ultimate-Guitar.com Take our survey!
×
This is a touching song.it's lyrics n music are very cool.
enjoy:

transcribed by RiwaZ ( riwaj_dustnbones@hotmail.com)

intro & chorus:
lead:
|----------------------------------|----------------------------------|
|----------------------------------|----------------------------------|
|--13--11--14--14--14--14--13--11--|----------11--13--11--14--11------|
|----------------------------------|--14--14----------------------14--|
|----------------------------------|----------------------------------|
|----------------------------------|----------------------------------|



|---------------------------|-----------------------|
|---------------------------|-----------------------|
|--9----4-------------------|--6-----9--9-----------|
|--9----4----7--7--7--7--9--|--6--7--9--9--9--9--9--|
|--7----2----7--7--7--7--9--|--4--7--7--7--9--9--9--|
|------------5--5--5--5/-7--|-----5--------7--7--7--|

---------------------------|-----------------------|---------------------------|
---------------------------|-----------------------|---------------------------|
--9----4-------------------|--6-----9--9-----------|--9\---4-------------------|
--9----4----7--7--7--7--9--|--6--7--9--9--9--9--9--|--9----4----7--7--7--9--9--|
--7----2----7--7--7--7--9--|--4--7--7--7--9--9--9--|--7----2----7--7--7/-9--9--|
------------5--5--5--5/-7--|-----5--------7--7--7--|------------5--5--5--7--7--|


                                                                        
---------------------|---------------------------|---------------------|
---------------------|---------------------------|---------------------|
--9\---4-------------|--9\---4-------------------|--9\---4-------------|
--9----4----7--9--9--|--9----4----7--7--7--9--9--|--9----4----7--9--9--|
--7----2----7--9--9--|--7----2----7--7--7/-9--9--|--7----2----7--9--9--|
------------5--7--7--|------------5--5--5--7--7--|------------5--7--7--|


                                                                              
---------------------------|---------------------|---------------------------|
---------------------------|---------------------|---------------------------|
--9----4-------------------|--9----4-------------|--9----4-------------------|
--9----4----7--7--7--9--9--|--9----4----7--9--9--|--9----4----7--7--7--9--9--|
--7----2----7--7--7/-9--9--|--7----2----7--9--9--|--7----2----7--7--7/-9--9--|
------------5--5--5--7--7--|------------5--7--7--|------------5--5--5--7--7--|


                                                                            
---------------------|--------------------------|--------------------------|
---------------------|--------------5-----------|--------------3-----------|
--9----4-------------|--------6-----------6-----|--------3-----------3-----|
--9----4----7--9--9--|-----6-----6-----6-----6--|-----3-----3-----3-----3--|
--7----2----7--9--9--|--4-----------------------|--1-----------------------|
------------5--7--7--|--------------------------|--------------------------|


                                                                           
-------------------------|---------------------------|--------------------|
-------------------------|---------------------------|--------------------|
-----3-----3-----5--3----|--9----4-------------------|--6-----9--9--------|
-----3-----3-----5--3----|--9----4----7--7--7--9--9--|--6--7--9--9--9--9--|
-------------------------|--7----2----7--7--7--9--9--|--4--7--7--7--9--9--|
--1-----3-----4----------|------------5--5--5/-7--7--|-----5--------7--7--|


                                               
------------------------|--------------------||
------------------------|--------------------||
--9----4----------------|--6-----9--9--------||
--9----4----7--7--7--9--|--6--7--9--9--9--9--||
--7----2----7--7--7--9--|--4--7--7--7--9--9--||
------------5--5--5/-7--|-----5--------7--7--||
                 

solo(it's amazin) short n sweet:

|-----------------------------------|
|-----------------------------------|
|-----------------------------------|
|----------------------9--9--9h-11--|
|---------9--9--9h-11---------------|
|--9h-12----------------------------|


                                                             
-----------------------------|----------------12p-9------9--|
---------------9--12p-9------|--9---------12---------12-----|
--9--9--9h-11------------11--|-----11p-9--------------------|
-----------------------------|------------------------------|
-----------------------------|------------------------------|
-----------------------------|------------------------------|


                                                       
-------------------------------|--14b-14--------------|
--12p-9------9-----------------|----------------------|
---------11-----11b-11--9------|----------------------|
---------------------------11--|----------------------|
-------------------------------|----------------------|
-------------------------------|----------------------|

(along with intro chords)
|----------------------------------|----------------------------------|
|----------------------------------|----------------------------------|
|--13--11--14--14--14--14--13--11--|----------11--13--11--14--11------|
|----------------------------------|--14--14----------------------14--|
|----------------------------------|----------------------------------|
|----------------------------------|----------------------------------|


Outro:repeat again n again
                                                                      
--16--14--17--17--17--17--16--14--|----------14--16--14--16--14------|
----------------------------------|--17--17----------------------17--|
----------------------------------|----------------------------------|
----------------------------------|----------------------------------|
----------------------------------|----------------------------------|
----------------------------------|----------------------------------|


                    
--16--16--14--14--||
------------------||
------------------||
------------------||
------------------||
------------------||

=======================================================
-------------------------------------------------------
any comments?

                          Any correction needed?

if necessary parts are left then just mail( riwaj_dustnbones@hotmail.com) or add here
Suggest correction
comments
print report bad tab
1 comment total.
0 reply
Guitarmaster94 498 Apr 07, 2008 08:01 PM

You forgot to mention that the tuning is supposed to be a half step down and for the chorus and intro they use an octave pedal. Other than that great tab and 4 stars for the effort.

guest
You may want to rate the tab now too:
select rating
Wanna post a correction for this tab? Suggest correction