Oops, an error
Loading. Please wait.
We have an official Talk Dirty To Me tab made by UG professional guitarists. Check out the tab »
×
by Poison
251,957 views 297 this week
26 commentsread comments
1 2 3 4 5
x 92
add to favorites
×
Save as Personal and add changes to this tab that will be seen only by you. Learn more ›
×
You can save this tab as Personal to edit and correct it or add notes. All changes will be seen only by you. Learn more »
launch autoscroll
font size
0
reset
how to read this tab
guitar tuner
backing track
0:00
0:00
edit
Autoscroll
slow
fast
+/-
esc
set tempo
stop
Tuning : half-step down

[Intro]
D#|-------------------------------------------------------------------------|
A#|-------------------------------------------------------------------------|
F#|--5---5--5-5--/7---7--7-7--11/12-12-12--11/12-12-12--11/12-12-12---12-12-|
C#|--5---5--5-5--/7---7--7-7--11/12-12-12--11/12-12-12--11/12-12-12---12-12-|
G#|--3---3--3-3--/5---5--5-5---9/10-10-10---9/10-10-10---9/10-10-10---10-10-|
D#|-------------------------------------------------------------------------|

D#|-------------------------------------------------------------------------|
A#|-------------------------------------------------------------------------|
F#|--5---5--5-5--/7---7--7-7--11/12-12-12--11/12-12-12--11/12-12-12---12-12-|
C#|--5---5--5-5--/7---7--7-7--11/12-12-12--11/12-12-12--11/12-12-12---12-12-|
G#|--3---3--3-3--/5---5--5-5---9/10-10-10---9/10-10-10---9/10-10-10---10-10-|
D#|-------------------------------------------------------------------------|

                                                               You know I

                      Pick Slide>>>>>>>>>>>>>>>>>>>>>>>>>>>>>>>>>>>>>>>>>>>
D#|-------------------------------------------------------------------------|
A#|-------------------------------------------------------------------------|
F#|-12-----------(12)-------------------------------------------------------|
C#|-12-----------(12)-X-\---------------------------------------------------|
G#|-10-----------(10)-X-\---------------------------------------------------|
D#|-------------------X-\---------------------------------------------------|

never...                       good

D#|--------------------------------------------------------------|
A#|--------------------------------------------------------------|
F#|-12-(12)-12-12-12-12-12-12-12---12-(12)-12-12-12-12-12-12-12--|
C#|-12-(12)-12-12-12-12-12-12-12---12-(12)-12-12-12-12-12-12-12--|
G#|-10-(10)-10-10-10-10-10-10-10---12-(10)-10-10-10-10-10-10-10--|
D#|--------------------------------------------------------------|
pm        .  .  .  .  .  .  .            .  .  .  .  .  .  .

should...              like it

D#|-----------------------------------------------|
A#|-----------------------------------------------|
F#|-7-(7)-7-7-7-7-7-7-7-7---7-(7)-7-7-7-7-7-7-7-7-|
C#|-7-(7)-7-7-7-7-7-7-7-7---7-(7)-7-7-7-7-7-7-7-7-|
G#|-5-(5)-5-5-5-5-5-5-5-5---5-(5)-5-5-5-5-5-5-5-5-|
D#|-----------------------------------------------| 
pm     . . . . . . . .         . . . . . . . .

know...                 too...

D#|-----------------------------------------------|
A#|-----------------------------------------------|
F#|-5-(5)-5-5-5-5-5-5-5-5---5-(5)-5-5-5-5-5-5-5-5-|
C#|-5-(5)-5-5-5-5-5-5-5-5---5-(5)-5-5-5-5-5-5-5-5-|
G#|-3-(3)-3-3-3-3-3-3-3-3---3-(3)-3-3-3-3-3-3-3-3-|
D#|-----------------------------------------------|
pm     . . . . . . . .         . . . . . . . .

you..               gotta have you                       Fill*

D#|------------------------------------(with-fill)-------| |-----9---------|
A#|------------------------------------------------------| |-6h7-----6h7---|
F#|-12-(12)-12-12-12-12-12-12-12---7-(7)-7-7-7-7-7-7-7-7-| |-------------6-|
C#|-12-(12)-12-12-12-12-12-12-12---7-(7)-7-7-7-7-7-7-7-7-| |---------------|
G#|-10-(10)-10-10-10-10-10-10-10---5-(5)-5-5-5-5-5-5-5-5-| |---------------|
D#|------------------------------------------------------| |---------------|

for next verse
somethin like this..                        to see you...

D#|----------------------------------------------------------------------|
A#|----------------------------------------------------------------------|
F#|-12-x-12-12-x12-12-12-x-12-12-x12-12--7-x-7-7-x7-7--7-----9-7-x-5-9-7-|
C#|-12-x-12-12-x12-12-12-x-12-12-x12-12--7-x-7-7-x7-7--7-----7-7-x-7-7-7-|
G#|-10-x-10-10-x10-10-10-x-10-10-x10-10--5-x-5-5-x5-5----5-5-------------|
D#|----------------------------------------------------------------------|
                                                      . .

D#|------------------------------------------------------------------------|
A#|------------------------------------------------------------------------|
F#|-5-x--5--5-x-5--5--5-x--5--5-x-5--5-12-x-12-12-x12-12-12-x-12-12-x12-12-|
C#|-5-x--5--5-x-5--5--5-x--5--5-x-5--5-12-x-12-12-x12-12-12-x-12-12-x12-12-|
G#|-3-x--3--3-x-3--3--3-x--3--3-x-3--3-10-x-10-10-x10-10-10-x-10-10-x10-10-|
D#|------------------------------------------------------------------------|

[Chorus]

   (same as intro)
D#|-------------------------------------------------------------------------||
A#|------------------------------------------------------------------------o||
F#|-5---5--5-5--/7---7--7-7--11/12-12-12--11/12-12-12--11/12-12-12---12-12--||
C#|-5---5--5-5--/7---7--7-7--11/12-12-12--11/12-12-12--11/12-12-12---12-12--||
G#|-3---3--3-3--/5---5--5-5---9/10-10-10---9/10-10-10---9/10-10-10---10-10-o||
D#|-------------------------------------------------------------------------||

  Down the basement                    cellar door

D#|---------------------------------------------------------------------------|
A#|---------------------------------------------------------------------------|
F#|-5---5--5----7---7--7--9---9-9-9-9-9-9--5---5-5-5-5-5-5-5----------------7-|
C#|-5---5--5----7---7--7--9---9-9-9-9-9-9--5---5-5-5-5-5-5-5--7-7-7-7-7-7-7-7-|
G#|-3---3--3----5---5--5--7---7-7-7-7-7-7--3---3-3-3-3-3-3-3--7-7-7-7-7-7-7-5-|
D#|-----------------------------------------------------------5-5-5-5-5-5-5---|

Talk Dirty To Me

D#|------------------------------------------------|
A#|------------------------------------------------|
F#|-----------------11/12--12-12-12-12-11/12-12-12-|
C#|-----------------11/12--12-12-12-12-11/12-12-12-|
G#|------------------9/10--10-10-10-10--9/10-10-10-|
D#|------------------------------------------------|

D#|--------------------------|
A#|--------------------------|
F#|--------------------------|
C#|-7-7-7-7-7-7-X-\----------|
G#|-5-5-5-5-5-5-X-\----------|
D#|-------------X-\-(12)\----|

[Solo]
D#|------------------------|---------------------|-----------------------|
A#|-5--5-3-1-0--5--5-3-1-0-|12-12-10-8-7-5-3-1-0-|5--5-3-1-0--5--5-3-1-0-|
F#|-5--5-4-2-0--5--5-4-2-0-|12-12-11-9-7-5-4-2-0-|5--5-4-2-0--5--5-4-2-0-|
C#|------------------------|---------------------|-----------------------|
G#|------------------------|---------------------|-----------------------|
D#|------------------------|---------------------|-----------------------|

D#|------------------------------------8----8----8----8-----|
A#|-7-7--7-8-8--8-10-10--10-12-12-----8----8----8----8------|
F#|-7-7--7-8-8--9-11-11--11-12-12--10b--10b--10b--10b----10-|
C#|---------------------------------------------------------|
G#|---------------------------------------------------------|
D#|---------------------------------------------------------|

D#|-3p2p0------------------------------------|-------------------------|
A#|------3p2p0-------------------------------|-------------------------|
F#|-----------4p2p0-----4p2p0----------------|-------------------------|
C#|----------------4p2p0-----4p2p0-----------|-7-7-9-9-10-10-11-11-12--|
G#|-------------------------------3p2p0------|-------------------------|
D#|------------------------------------3p2p0-|-------------------------|

D#|--------------------|--15-15-15-------------------------------------|
A#|--------------------|-----------15-15-15----------------------------|
F#|-14br-12-14br-12-12-|--------------------12-12-12-------------------|
C#|--------------------|-----------------------------12-12-12----------|
G#|--------------------|--------------------------------------10-10-10-|
D#|--------------------|-----------------------------------------------|

[Chorus]
D#|-------------------------------------------------------------------------|
A#|-------------------------------------------------------------------------|
F#|-5---5--5-5--/7---7--7-7--11/12-12-12--11/12-12-12--11/12-12-12---12-12--|
C#|-5---5--5-5--/7---7--7-7--11/12-12-12--11/12-12-12--11/12-12-12---12-12--|
G#|-3---3--3-3--/5---5--5-5---9/10-10-10---9/10-10-10---9/10-10-10---10-10--|
D#|-------------------------------------------------------------------------|

D#|-------------------------------------------------------------------------|
A#|-------------------------------------------------------------------------|
F#|-5---5--5-5--/7---7--7-7--11/12-12-12--11/12-12-12--11/12-12-12---12-12--|
C#|-5---5--5-5--/7---7--7-7--11/12-12-12--11/12-12-12--11/12-12-12---12-12--|
G#|-3---3--3-3--/5---5--5-5---9/10-10-10---9/10-10-10---9/10-10-10---10-10--|
D#|-------------------------------------------------------------------------|

D#|-----------|
A#|-----------|
F#|-10-10--10-|
C#|-10-10--10-|
G#|--8--8---8-|
D#|-----------|

  Down the basement                    cellar door

D#|---------------------------------------------------------------------------|
A#|---------------------------------------------------------------------------|
F#|-5---5--5----7---7--7--9---9-9-9-9-9-9--5---5-5-5-5-5-5-5----------------7-|
C#|-5---5--5----7---7--7--9---9-9-9-9-9-9--5---5-5-5-5-5-5-5--7-7-7-7-7-7-7-7-|
G#|-3---3--3----5---5--5--7---7-7-7-7-7-7--3---3-3-3-3-3-3-3--7-7-7-7-7-7-7-5-|
D#|-----------------------------------------------------------5-5-5-5-5-5-5---|

Talk Dirty To Me

D#|--------------------------15------15--------12--|
A#|-----------------------15------------15---x-15b-|
F#|------------------17b--------17b----------------|
C#|------------------------------------------------|
G#|------------------------------------------------|
D#|------------------------------------------------|

Talk Dirty To Me

D#|----------------19b----19--17--15--15h17p15-----|
A#|-------------------------------------------17---|
F#|------------------------------------------------|
C#|------------------------------------------------|
G#|------------------------------------------------|
D#|------------------------------------------------|

And  Ba - bay              talk dirty to me

D#|---------------------|--------------------------|
A#|---------------------|--------------------------|
F#|----5-5-5-5-5-5-5-5--|-7------------------------|
C#|----5-5-5-5-5-5-5-5--|-7------------------------|
G#|----3-3-3-3-3-3-3-3--|-5------------------------|
D#|---------------------|--------------------------|

                                        uh

D#|------------------------------------------------|
A#|------------------------------------------------|
F#|-11/12-12-12--11/12-12-12--11/12-12-12----------|
C#|-11/12-12-12--11/12-12-12--11/12-12-12----------|
G#|--9/10-10-10---9/10-10-10---9/10-10-10----------|
D#|------------------------------------------------|

D#|------------------------------------------------|
A#|------------------------------------------------|
F#|-11/12-12-12--11/12-12-12--11/12-12-12----------|
C#|-11/12-12-12--11/12-12-12--11/12-12-12----------|
G#|--9/10-10-10---9/10-10-10---9/10-10-10----------|
D#|------------------------------------------------|

                                                      Whammy Bar

D#|-------15-13-----15-13-----15-13-----15-13-----19b-19----/\----|
A#|--15-15-----15-15-----15-15-----15-15-----15-15-------*-/--\---|
F#|------------------------------------------------------3.2---\--|
C#|-------------------------------------------------------------\-|
G#|---------------------------------------------------------------|
D#|---------------------------------------------------------------|

[End]
D#|-----|
A#|-----|
F#|-----|
C#|--5--|
G#|--5--|
D#|--3--|

And that's pretty much it

************************************

* = slight natural harmonic
b = bend
pb = pre-bend
br = bend then release
. = Palm Mute
h = hammer-on
p = pull-off
/ = slide up
\ = slide down

************************************

            
            
Suggest correction
Creating personal tab
Creating personal tab
You can edit any tab online and save it as your Personal.

You can edit, replace or remove any tab part or add personal notes – all changes will be seen only by you.

Personal tabs can be accessed anytime from any device, even offline.
Learn more »
comments
print report bad tab
26 comments total. Showing first comments.
+3 reply
lil tony iommi 10 Nov 17, 2007 01:44 PM

really well done tab, though it should be tuned down half a step

+3 reply
nick_leback 10 Dec 15, 2007 06:09 PM

****in amazing.

0 reply
death eater 97 Jan 02, 2008 03:48 PM

lil tony iommi is right, it goes down 1/2 step. also, during the verse, u dont play a muted open E, u mute the chord
that u are playing, but other than that pretty decent 4 stars

guest
You may want to rate the tab now too:
select rating
Wanna post a correction for this tab? Suggest correction