Oops, an error
Loading. Please wait.
We have an official Talk Dirty To Me tab made by UG professional guitarists. Check out the tab »
×
by Poison
2,653 views 1 this week
no commentswrite comment
1 2 3 4 5
2 more votes to show rating
add to favorites
×
Save as Personal and add changes to this tab that will be seen only by you. Learn more ›
×
You can save this tab as Personal to edit and correct it or add notes. All changes will be seen only by you. Learn more »
launch autoscroll
font size
0
reset
guitar tuner
backing track
0:00
0:00
edit
Autoscroll
slow
fast
+/-
esc
set tempo
stop
Author
Difficulty
Typically easy "hair metal" bass line. Enjoy.

Tabbed by: BASSteve

Tuning: EADG

Time signature: 4/4

r = rest (listen for duration)
/ = slide (low to high)
\ = slide (high to low)
()= note inside parenthesis not plucked or hammered on
{}= note inside pointed parenthesis still ringing from previous measure
||= measure gets repeated (see number of times above measure, e.g. 4x)

*My tabs are meant to be read in conjunction with listening to the song.
In other words, there are no specific notations to account for note/rest duration. 
However, you will find that I've made an attempt to strategically space the notes 
and rests within their respective measures in order to represent the appropriate 
durations.



INTRO

G|--------------------------------|--------------------------------|
D|--------------------------------|--------------------------------|
A|r-------------------------------|r-------------------------------|
E|--------------------------------|--------------------------------|



|--------------------------------|--------------------------------|
|--------------------------------|--------------------------------|
|r-------------------------------|r-----------------------9\--r---|
|--------------------------------|--------------------------------|



|--------------------------------|--------------------------------|
|--------------------------------|--------------------------------|
|2---r------2--------2---2---2---|4---r------4-------4---4---4----|
|--------------------------------|--------------------------------|


                
|--------------------------------|--------------------------------|
|3/-(4)--4---4---3/-(4)--4---4---|3/-(4)--4---4-------4---4---3/--|
|--------------------------------|--------------------------------|
|--------------------------------|--------------------------------|


                                   3x               
|--------------------------------||--------------------------------||
|4-------------------------------||{4}-----------------------------||
|--------------------------------||--------------------------------||
|--------------------------------||--------------------------------||



VERSE 1 

|--------------------------------|--------------------------------|
|--------------------------------|--------------------------------|
|9-----------\-------r-----------|r-------------------------------|
|--------------------------------|--------------------------------|



|--------------------------------|--------------------------------|
|4-------r-----------------------|r-------------------------------|
|--------------------------------|--------------------------------|
|--------------------------------|--------------------------------|


  2x
||--------------------------------|--------------------------------||
||--------------------------------|--------------------------------||
||4-------r-----------------------|r-------------------------------||
||--------------------------------|--------------------------------||


  2x
||--------------------------------|--------------------------------||
||--------------------------------|--------------------------------||
||2-------r-----------------------|r-------------------------------||
||--------------------------------|--------------------------------||



|--------------------------------|--------------------------------|
|4-------r-----------------------|r-------------------------------|
|--------------------------------|--------------------------------|
|--------------------------------|--------------------------------|



|--------------------------------|--------------------------------|
|--------------------------------|--------------------------------|
|4-------r-----------------------|4---4---4---4---4---4---4---4---|
|--------------------------------|--------------------------------|



VERSE 2

  2x
||--------------------------------|--------------------------------||
||4---4---4---4---4---4---4---4---|4---4---4---4---4---4---4---4---||
||--------------------------------|--------------------------------||
||--------------------------------|--------------------------------||


  2x
||--------------------------------|--------------------------------||
||--------------------------------|--------------------------------||
||4---4---4---4---4---4---4---4---|4---4---4---4---4---4---4---4---||
||--------------------------------|--------------------------------||



|--------------------------------|--------------------------------|
|--------------------------------|--------------------------------|
|2---2---2---2---2---2---2---2---|2---2---2---2---2---2---2---2---|
|--------------------------------|--------------------------------|



|--------------------------------|--------------------------------|
|--------------------------------|--------------------------------|
|2---2---2---2---2---2---2---2---|2---2---2---2---2---2---3---4---|
|--------------------------------|--------------------------------|



|--------------------------------|--------------------------------|
|4---4---4---4---4---4---4---4---|4---4---4---4---4---4---4---4---|
|--------------------------------|--------------------------------|
|--------------------------------|--------------------------------|



|--------------------------------|--------------------------------|
|--------------------------------|--------------------------------|
|4---4---4---4---4---4---4---4---|4---4---4---4---4---4---4---4---|
|--------------------------------|--------------------------------|



CHORUS

  2x
||--------------------------------|--------------------------------|
||--------------------------------|--------------------------------|
||2-------r---2---2-------2-------|4-------r---4---4-------4-------|
||--------------------------------|--------------------------------|



|--------------------------------|--------------------------------||
|3/-(4)--4---4---3/-(4)--4---4---|3/-(4)--4---4-------4---4---3/--||
|--------------------------------|--------------------------------||
|--------------------------------|--------------------------------||



|--------------------------------|--------------------------------|
|--------------------------------|--------------------------------|
|2-------r---2---2-------2-------|4-------r---4---4-------4-------|
|--------------------------------|--------------------------------|



|--------------------------------|--------------------------------|
|--------------------------------|--------------------------------|
|6-------r---6---6-------6-------|2-------r---2---2-------2-------|
|--------------------------------|--------------------------------|



|--------------------------------|--------------------------------|
|--------------------------------|--------------------------------|
|--------------------------------|4---r---------------------------|
|4-------r---4---4-------4-------|--------------------------------|



|--------------------------------|--------------------------------|
|3/-(4)--4---4---4---4---4---4---|3/-(4)--4---4---4---4---4---4---|
|--------------------------------|--------------------------------|
|--------------------------------|--------------------------------|



[VERSE 2]



CHORUS 2

  2x
||--------------------------------|--------------------------------|
||--------------------------------|--------------------------------|
||2-------r---2---2-------2-------|4-------r---4---4-------4-------|
||--------------------------------|--------------------------------|



|--------------------------------|--------------------------------||
|3/-(4)--4---4---3/-(4)--4---4---|3/-(4)--4---4-------4---4---3/--||
|--------------------------------|--------------------------------||
|--------------------------------|--------------------------------||



|--------------------------------|--------------------------------|
|--------------------------------|--------------------------------|
|2-------r---2---2-------2-------|4-------r---4---4-------4-------|
|--------------------------------|--------------------------------|



|--------------------------------|--------------------------------|
|--------------------------------|--------------------------------|
|6-------r---6---6-------6-------|2-------r---2---2-------2-------|
|--------------------------------|--------------------------------|



|--------------------------------|--------------------------------|
|--------------------------------|--------------------------------|
|--------------------------------|4---r---------------------------|
|4-------r---4---4-------4-------|--------------------------------|



|--------------------------------|--------------------------------|
|--------------------------------|--------------------------------|
|r-------------------------------|r-------------------------------|
|--------------------------------|--------------------------------|



GUITAR SOLO

|--------------------------------|--------------------------------|
|--------------------------------|--------------------------------|
|4---4---4---4---4---4---4---4---|4---4---4---4---4---4---4---4---|
|--------------------------------|--------------------------------|



|--------------------------------|--------------------------------|
|--------------------------------|--------------------------------|
|2---2---2---2---2---2---2---2---|2---2---2---2---2---2---2---2---|
|--------------------------------|--------------------------------|



|--------------------------------|--------------------------------|
|4---4---4---4---4---4---4---4---|4---4---4---4---4---4---4---4---|
|--------------------------------|--------------------------------|
|--------------------------------|--------------------------------|



|--------------------------------|--------------------------------|
|--------------------------------|--------------------------------|
|2---2---2---2---2---2---2---2---|2---2---2---2---2---2---2---2---|
|--------------------------------|--------------------------------|



|--------------------------------|--------------------------------|
|--------------------------------|--------------------------------|
|4---4---4---4---6---6---6---6---|8---8---8---8---9---9---9---9---|
|--------------------------------|--------------------------------|



|--------------------------------|--------------------------------|
|--------------------------------|--------------------------------|
|2---2---2---2---2---2---2---2---|2---2---2---2---2---2---2---2---|
|--------------------------------|--------------------------------|



|--------------------------------|--------------------------------|
|4---4---4---4---4---4---4---4---|4---4---4---4---4---4---4---4---|
|--------------------------------|--------------------------------|
|--------------------------------|--------------------------------|



|--------------------------------|--------------------------------|
|6---6---6---6---6---6---6---6---|--------------------------------|
|--------------------------------|4---r---------------------------|
|--------------------------------|--------------------------------|



|--------------------------------|--------------------------------|
|--------------------------------|--------------------------------|
|--------------------------------|--------------------------------|
|2---r---------------------------|2---r---------------------------|



|--------------------------------|--------------------------------|
|--------------------------------|--------------------------------|
|--------------------------------|--------------------------------|
|2---r-----------2---r-----------|2---r---2---r---2---r---2---r---|



|--------------------------------|--------------------------------|
|--------------------------------|--------------------------------|
|2-------r---2---2-------2-------|4-------r---4---4-------4-------|
|--------------------------------|--------------------------------|



|--------------------------------|--------------------------------|
|3/-(4)--4---4---3/-(4)--4---4---|3/-(4)--4---4-------4---4---3/--|
|--------------------------------|--------------------------------|
|--------------------------------|--------------------------------|



|--------------------------------|--------------------------------|
|--------------------------------|--------------------------------|
|2-------r---2---2-------2-------|4-------r---4---4-------4-------|
|--------------------------------|--------------------------------|



|--------------------------------|--------------------------------|
|3/-(4)--4---4---3/-(4)--4---4---|3/-(4)--4-------2-------2-----2-|
|--------------------------------|--------------------------------|
|--------------------------------|--------------------------------|



|--------------------------------|--------------------------------|
|--------------------------------|--------------------------------|
|2-------r---2---2-------2-------|4-------r---4---4-------4-------|
|--------------------------------|--------------------------------|



|--------------------------------|--------------------------------|
|--------------------------------|--------------------------------|
|6-------r---6---6-------6-------|2-------r---2---2-------2-------|
|--------------------------------|--------------------------------|



|--------------------------------|--------------------------------|
|--------------------------------|--------------------------------|
|--------------------------------|4---r---------------------------|
|4-------r---4---4-------4-------|--------------------------------|



|--------------------------------|--------------------------------|
|3/-(4)--4---4---4---4---4---4---|1---1---1---1---1---1---1---1---|
|--------------------------------|--------------------------------|
|--------------------------------|--------------------------------|



|--------------------------------|--------------------------------|
|--------------------------------|--------------------------------|
|2-------r---2---2-------2-------|4-------r---4---4-------4-------|
|--------------------------------|--------------------------------|



|--------------------------------|--------------------------------|
|4---------------4-----3-----2---|--1---------r---1---1-------1---|
|--------------------------------|--------------------------------|
|--------------------------------|--------------------------------|



|--------------------------------|--------------------------------|
|--------------------------------|--------------------------------|
|2-------r---2---2-------2-------|4---r---------------------------|
|--------------------------------|--------------------------------|



|--------------------------------|--------------------------------|
|--------------------------------|--------------------------------|
|r-------------------------------|r-------------------------------|
|--------------------------------|--------------------------------|



|--------------------------------|--------------------------------|
|--------------------------------|--------------------------------|
|r-------------------------------|r-----------------------4-------|
|--------------------------------|--------------------------------|


  3x
||--------------------------------|--------------------------------||
||{4}-----------------------------|{4}-----------------------------||
||--------------------------------|--------------------------------||
||--------------------------------|--------------------------------||



|--------------------------------|--------------------------------|
|{4}---------------------4-------|r-------------------------------|
|--------------------------------|--------------------------------|
|--------------------------------|--------------------------------|

                (PLEASE RATE THIS TAB / LEAVE COMMENT)

            
            
Suggest correction
Creating personal tab
Creating personal tab
You can edit any tab online and save it as your Personal.

You can edit, replace or remove any tab part or add personal notes – all changes will be seen only by you.

Personal tabs can be accessed anytime from any device, even offline.
Learn more »
Give kudos to tab author, rate the tab!
1 2 3 4 5
comments
print report bad tab
guest
You may want to rate the tab now too:
select rating
Wanna post a correction for this tab? Suggest correction