Oops, an error
Loading. Please wait.

Unskinny Bop bass

version 1
version 1

Whole song

Interactive

by Poison
12,462 views 21 this week
2 commentsread comments
1 2 3 4 5
x 5
add to favorites
×
Save as Personal and add changes to this tab that will be seen only by you. Learn more ›
×
You can save this tab as Personal to edit and correct it or add notes. All changes will be seen only by you. Learn more »
launch autoscroll
font size
0
reset
guitar tuner
backing track
0:00
0:00
edit
Autoscroll
slow
fast
+/-
esc
set tempo
stop
Difficulty
intermediate
Banda: Poison
Canción: Unskinny Bop 
Disco: Flesh & Blood
Tabbed By: Francisco Bravo (Santiago, Chile)
Contacto: buhometalero@yahoo.es

Importante: Afinado en Mib  (E b) 

Introducción
|---------------------------------------------------------------------|
|---------------------------------------------------------------------|
|-0-0-0-0-0-0-0-0-0-0-0-0-0-0-0-0-0-0-0-0-0-0-0-0-0-0-0-0-0-0-0-0-0-0-|
|---------------------------------------------------------------------|

Verso
riff1
|---------------------------------------------------------------------|
|---------------------------------------------------------------------|
|-0-0-0-0-0-0-0-0-0-0-0-0-0-0-0-0-0-0-0-0-0-0-0-0-0-0-0-0-0-0-0-0-0-0-|
|---------------------------------------------------------------------|

Puente
riff2 
|--------------------------------------------------------------|
|--------------------------------------------------------------|
|--------------------------------------------------------------|
|-0--0--0-0-3-3---0--0--0-0-3-3---0--0--0-0-3-3---0--0--0--0-3-|

Coro
riff3 x 3
|----------------------------------|-----------------------------------|
|----------------------------4-5-7-|-----------------------------------|
|-0-0-0-0-0-0-0-0---2-3-5--5-------|-3-3-3-3-3-3-3-3-------------------|
|-----------------3----------------|-----------------0-2-0-3-0-4-0-5---|

Verso 
|---------------------------------------------------------------------|
|---------------------------------------------------------------------|
|-0-0-0-0-0-0-0-0-0-0-0-0-0-0-0-0-0-0-0-0-0-0-0-0-0-0-0-0-0-0-----5---|
|-------------------------------------------------------------3-3-----|

			     riff4	
|----------|--------------||----------------------------|
|--riff2---|--riff3 x 3---||----------------------------|
|----------|--------------||-7-7-7-7-7-7-7-7------------|
|----------|--------------||-----------------3---3-4----|

riff5 x 3 						    Solo Guit.
|---7\-------------------|---------------------------------|-------------|
|------------------------|---------------------------------|--riff3 x 3--|
|-5--------0--0--0--0-0--|-7-7-7-7-7-7-7-7-----------------|-------------|
|------2-3---------------|-----------------0-2-0-3-0-4-0-5-|-------------|

	   riff6 x 3 
|--------|-----------------|--------------|-------------|
|-riff4--|-----------------|--------------|-riff3 x 7---|
|--------|-----------------|-5------------|-------------|
|--------|-2-3-3-3-2-3-3-5-|-------3--3-4-|-------------|


 Suerte... cualquier duda contactar al mail 
Suggest correction
Creating personal tab
Creating personal tab
You can edit any tab online and save it as your Personal.

You can edit, replace or remove any tab part or add personal notes – all changes will be seen only by you.

Personal tabs can be accessed anytime from any device, even offline.
Learn more »
comments
print report bad tab
2 comments total.
0 reply
lowestfrequency 156 Oct 04, 2007 06:07 AM

Last part of the verse is E not C -> slide that sucker up to the 7th fret of the A string.

0 reply
lowestfrequency 156 Oct 10, 2007 05:05 AM

Also...the walk-up is chromatic -> no step jump at the end:
G|----------------|----------------|
D|----------------|----------4-5-6-|
A|----------------|--2-3-4-5-------|
E|5-5-5-5-5-5-5-5-|3---------------|

guest
Wanna post a correction for this tab? Suggest correction