Oops, an error
Loading. Please wait.

Unskinny Bop Bass

version 2
version 2

Whole song

Interactive

by Poison
7,091 views 9 this week
no commentswrite comment
1 2 3 4 5
x 5
add to favorites
launch autoscroll
font size
0
reset
guitar tuner
backing track
0:00
0:00
×
Best way to learn
"Unskinny Bop"
Autoscroll
slow
fast
+/-
esc
set tempo
stop
Author
[Intro]

G|---------------------------------------------------------------|
D|---------------------------------------------------------------|
A|---------------------------------------------------------------|
E|-4-4-4-4-4-4-4-4-4-4-4-4-4-4-4-4-4-4-4-4-4-4-4-4-4-4-4-4-4-4-4-|


[0:45]

G|-----------------------------|
D|-----------------------------|
A|-----------------------------|
E|-0-0-0-22--0-0-0-3--0-0-0-22-|


[Chorus]

(0:58)
G|-----------------|
D|---------3-4-5-6-|
A|-0-2-3-4---------|
E|-----------------|


[1:13]

G|--------------------|
D|--------------------|
A|--------------------|
E|-0-1--0-2--0-3--0-4-|
Suggest correction
comments
print report bad tab
guest
You may want to rate the tab now too:
select rating
Wanna post a correction for this tab? Suggest correction