Oops, an error
Loading. Please wait.

Your Mama Dont Dance tab

version 2
version 2

Whole song

Interactive

by Poison
10,165 views 21 this week
1 commentread comment
1 2 3 4 5
x 8
add to favorites
×
Save as Personal and add changes to this tab that will be seen only by you. Learn more ›
×
You can save this tab as Personal to edit and correct it or add notes. All changes will be seen only by you. Learn more »
launch autoscroll
font size
0
reset
how to read this tab
guitar tuner
edit
Autoscroll
slow
fast
+/-
esc
set tempo
stop
The rest of the tab will be coming. Once I finish tabbing it.


BAND: POISON

SONG: YOUR MAMA DON'T DANCE

TUNING STANDARD


INTRO:

e|---------------|
B|---------------|
G|-6----6--------| 8x
D|-6------8-6----|
A|-4-7h8---------|
E|---------------|

Lead guitar(during the Intro)
e|------9----9-9---9--12---9-7----7---7----------|
B|-5-6----9---------------------9---9----9-7-7---|
G|-----------------------------------------------|
D|-----------------------------------------------|
A|-----------------------------------------------|
E|-----------------------------------------------|

e|-4--2-0----------------------------|
B|--------2-1-0------------2---------|
G|---------------1-0-----------------|
D|--------------------4-2------------|
A|-----------------------------------|
E|-----------------------------------|


VERSE:
1st Guitar
e|---------------------------------------------------------------------------|
B|---------------------------------------------------------------------------|
G|---------------------------------------------------------------------------|
D|---------------------------------------------------------------------------|
A|---------------------------------------------------------------------------|
E|---------------------------------------------------------------------------|

2nd Guitar
e|---------------------------------------------------------------------------------|
B|---------------------------------------------------------------------------------|
G|6----6-----------------------6----6-------6----6---------------------------------|
D|6------8-6-----------4-------6------8-6---6------8-6---------4------------4------|
A|4-7h8---------4--------6-4---4-7h8--------4-7h8-------4--------6-4--4--------6-4-|
E|--------------2--5-6----------------------------------2--5-6--------2--5-6-------|

1st Guitar
e|---------------------------------------------------------------------------|
B|-----------------------------------------------------------14--14--14--14--|
G|-----------------------------------------------------------16fb16fb16fb16fb|
D|---------------------------------------------------------------------------|
A|---------------------------------------------------------------------------|
E|---------------------------------------------------------------------------|

2nd Guitar
e|---------------------------------------------------------------------------|
B|---------------------------------------------------------------------------|
G|6----6------6----6--------------------------------6----6------6------------|
D|6------8-6--6------8-6--6----6-------------4------6------8-6--6------------|
A|4-7h8-------4-7h8-------6------8-6---4-------6-4--4-7h8-------4------------|
E|------------------------4-7h8--------2-5h6---------------------------------|

1st Guitar
e|-------------------------9---------------9-----9----9----------------------|
B|---------------------------9--12-12--------9---12hb-12hb-------------------|
G|--------------------9h10-------------9h10----------------------------------|
D|---------------------------------------------------------------------------|
A|---------------------------------------------------------------------------|
E|---------------------------------------------------------------------------|

2nd Guitar
e|-------------------------------------------------------------------------------|
B|-------------------------------------------------------------6------------6----|
G|6-----6--------------------6----6------6-----6--------6--------8-6--6-------8-6|
D|6-------8-6---------4------6------8-6--6-------8-6----4--7h8--------4-7h8------|
A|4-7h8--------4--------6-4--4-7h8-------4-7h8-----------------------------------|
E|-------------2--5h6------------------------------------------------------------|

1st Guitar
e|-------9---7-7---9-7-------------------------------------------------------|
B|---------9-----------9-7-6-------------------------------------------------|
G|--9-10---------------------------------------------------------------------|
D|---------------------------------------------------------------------------|
A|---------------------------------------------------------------------------|
E|---------------------------------------------------------------------------|

2nd Guitar
e|---------------------------------------------------------------------------|
B|------------------------------0---4-6-4---------2-4-2----------------------|
G|6------6------6-----6-------8---5--------6--2-3--------6-----6------6------|
D|6--------8-6--6-------8-6---6------------4-------------6-------8-6--6------|
A|4--7h8--------4-7h8------------------------------------4-7h8--------4------|
E|---------------------------------------------------------------------------|

************************************

| /   slide up
| \   slide down
| h   hammer-on
| p   pull-off
| ~   vibrato
| +   harmonic
| x   Mute note
| b   Bend
| pb  Pre-bend
| br  Bend release
| pbr Pre-bend release
| brb Bend release bend

************************************

            
            
Suggest correction
Creating personal tab
Creating personal tab
You can edit any tab online and save it as your Personal.

You can edit, replace or remove any tab part or add personal notes – all changes will be seen only by you.

Personal tabs can be accessed anytime from any device, even offline.
Learn more »
comments
print report bad tab
1 comment total.
0 reply
defleppardrocks 402 Jan 31, 2012 03:57 PM

a more updated tab should be here pretty soon.

guest
You may want to rate the tab now too:
select rating
Wanna post a correction for this tab? Suggest correction