Oops, an error
Loading. Please wait.

Parks And What You Meant To Me bass

version 1
version 1

Whole song

Interactive

228 views 3 this week
1 commentread comment
1 2 3 4 5
3 more votes to show rating
add to favorites
×
Save as Personal and add changes to this tab that will be seen only by you. Learn more ›
×
You can save this tab as Personal to edit and correct it or add notes. All changes will be seen only by you. Learn more »
launch autoscroll
font size
0
reset
guitar tuner
edit
Autoscroll
slow
fast
+/-
esc
set tempo
stop
UPDATE: Fixed to play in true Drop C tuning. (CGCF)

(Intro)

|----|----|----|----|----|----|----|----|
|----|----|----|----|----|----|----|----|
|----|----|----|----|----|----|----|----|
|2---|--5-|----|----|1---|----|----|----|

|----|----|----|----|----|----|----|----|
|----|----|----|----|----|----|----|----|
|----|----|----|----|----|----|----|----|
|5---|----|----|----|5---|----|----|----|

|----|----|----|----|----|----|----|----|
|----|----|----|----|----|----|----|----|
|----|----|----|----|----|----|----|----|
|5---|----|----|----|0--7|--5-|-1--|----|

(Verse 1)

|----|----|----|----|----|----|----|----|
|----|----|----|----|----|----|----|----|
|----|----|----|----|----|----|----|----|
|0007|7755|5111|1111|0005|5522|2111|1111| (x4)

(Breakdown)

This section is 'zoomed in' so I could fit in the faster rhythm.

|----|----|----|----|----|----|----|----|
|----|----|----|----|----|----|----|----|
|----|----|----|----|----|----|----|----|
|----|----|----|----|----|----|000-|000-|

|----|----|----|----|----|----|----|----|
|----|----|----|----|----|----|----|----|
|----|----|----|----|----|----|----|----|
|000-|0-0-|----|----|----|----|000-|000-| (x4)

(Verse 2)

|----|----|----|----|----|----|----|----|
|----|----|----|----|----|----|----|----|
|----|----|----|----|----|----|----|----|
|0007|7755|5111|1111|0005|5522|2111|1111| (x4)

(Bridge)

|----|----|----|----|----|----|----|----|
|----|----|----|----|----|----|----|----|
|----|----|----|----|----|----|----|----|
|5---|----|----|----|5---|----|----|----| (x3)

|----|----|----|----|----|----|----|----|
|----|----|----|----|----|----|----|----|
|----|----|----|----|----|----|----|----|
|5---|----|----|----|5---|----|----|02--|

|----|----|----|----|----|----|----|----|
|----|----|----|----|----|----|----|----|
|----|----|----|----|----|----|----|----|
|0000|0000|0000|0000|5555|5555|5555|5555|

|----|----|----|----|----|----|----|----|
|----|----|----|----|----|----|----|----|
|----|----|----|----|----|----|----|----|
|0000|0000|0000|0000|8888|8888|8888|8888|

|----|----|----|----|----|----|----|----|
|----|----|----|----|----|----|----|----|
|----|----|----|----|----|----|----|----|
|5555|5555|5555|5555|5555|5555|5555|5555|

|----|----|----|----|----|----|----|----|
|----|----|----|----|----|----|----|----|
|----|----|----|----|----|----|----|----|
|0000|0000|0000|0000|8888|8888|8888|8888|

|----|----|----|----|----|----|----|----|
|----|----|----|----|----|----|----|----|
|----|----|----|----|----|----|----|----|
|5555|5555|5555|5555|5555|5555|5555|5555|

|----|----|----|----|----|----|-  -  -  - |-  -  -  - |
|----|----|----|----|----|----|-  -  -  - |-  -  -  - |
|----|----|----|----|----|----|-  -  -  - |-  -  -  - |
|0000|0000|0000|0000|8888|8888|10 10 10 12|12 12 12 12|

|----|----|----|----|
|----|----|----|----|
|----|----|----|----|
|5555|5555|5555|5555| Slide from the 12's into the 5's here.

(Outro)

This part is 'zoomed in' again.

|----|----|----|----|----|----|----|----|
|----|----|----|----|----|----|----|----|
|----|----|----|----|----|----|----|----|
|000-|0-0-|----|----|----|----|000-|000-|

|----|----|----|----|----|----|----|----|
|----|----|----|----|----|----|----|----|
|----|----|----|----|----|----|----|----|
|000-|0-0-|----|----|----|----|000-|000-|

|----|----|----|----|----|----|----|----|
|----|----|----|----|----|----|----|----|
|----|----|----|----|----|----|----|----|
|000-|0-0-|----|----|----|----|000-|000-|

|----|----|----|----|----|----|----|----|
|----|----|----|----|----|----|----|----|
|----|----|----|----|----|----|----|----|
|000-|0-0-|----|----|----|----|000-|0-0-|

|----|----|----|----|----|----|----|----|
|----|----|----|----|----|----|----|----|
|----|----|----|----|----|----|----|----|
|0---|0---|0---|0---|0---|0---|0---|0---| (x however many times until you want to end 
song, because obviously you aren't going to have a studio fade ending if playing this live.)

            
            
Suggest correction
Creating personal tab
Creating personal tab
You can edit any tab online and save it as your Personal.

You can edit, replace or remove any tab part or add personal notes – all changes will be seen only by you.

Personal tabs can be accessed anytime from any device, even offline.
Learn more »
Give kudos to tab author, rate the tab!
1 2 3 4 5
comments
print report bad tab
1 comment total.
0 reply
muso_catolico 153 May 23, 2007 04:24 PM

My bass wasn't tuned properly when I transcribed those tabs.

These are the right tabs, for Parks and What You Meant to Me in DROP C:

(Intro)

|----|----|----|----|----|----|----|----|
|----|----|----|----|----|----|----|----|
|----|----|----|----|----|----|----|----|
|2---|--5-|----|----|1---|----|----|----|

|----|----|----|----|----|----|----|----|
|----|----|----|----|----|----|----|----|
|----|----|----|----|----|----|----|----|
|5---|----|----|----|5---|----|----|----|

|----|----|----|----|----|----|----|----|
|----|----|----|----|----|----|----|----|
|----|----|----|----|----|----|----|----|
|5---|----|----|----|0--7|--5-|-1--|----|

(Verse 1)

|----|----|----|----|----|----|----|----|
|----|----|----|----|----|----|----|----|
|----|----|----|----|----|----|----|----|
|0007|7755|5111|1111|0005|5522|2111|1111| (x4)

(Breakdown)

This section is 'zoomed in' so I could fit in the faster rhythm.

|----|----|----|----|----|----|----|----|
|----|----|----|----|----|----|----|----|
|----|----|----|----|----|----|----|----|
|----|----|----|----|----|----|000-|000-|

|----|----|----|----|----|----|----|----|
|----|----|----|----|----|----|----|----|
|----|----|----|----|----|----|----|----|
|000-|0-0-|----|----|----|----|000-|000-| (x4)

(Verse 2)

|----|----|----|----|----|----|----|----|
|----|----|----|----|----|----|----|----|
|----|----|----|----|----|----|----|----|
|0007|7755|5111|1111|0005|5522|2111|1111| (x4)

(Bridge)

|----|----|----|----|----|----|----|----|
|----|----|----|----|----|----|----|----|
|----|----|----|----|----|----|----|----|
|5---|----|----|----|5---|----|----|----| (x3)

|----|----|----|----|----|----|----|----|
|----|----|----|----|----|----|----|----|
|----|----|----|----|----|----|----|----|
|5---|----|----|----|5---|----|----|02--|

|----|----|----|----|----|----|----|----|
|----|----|----|----|----|----|----|----|
|----|----|----|----|----|----|----|----|
|0000|0000|0000|0000|5555|5555|5555|5555|

|----|----|----|----|----|----|----|----|
|----|----|----|----|----|----|----|----|
|----|----|----|----|----|----|----|----|
|0000|0000|0000|0000|8888|8888|8888|8888|

|----|----|----|----|----|----|----|----|
|----|----|----|----|----|----|----|----|
|----|----|----|----|----|----|----|----|
|5555|5555|5555|5555|5555|5555|5555|5555|

|----|----|----|----|----|----|----|----|
|----|----|----|----|----|----|----|----|
|----|----|----|----|----|----|----|----|
|0000|0000|0000|0000|8888|8888|8888|8888|

|----|----|----|----|----|----|----|----|
|----|----|----|----|----|----|----|----|
|----|----|----|----|----|----|----|----|
|5555|5555|5555|5555|5555|5555|5555|5555|

|----|----|----|----|----|----|- - - - |- - - - |
|----|----|----|----|----|----|- - - - |- - - - |
|----|----|----|----|----|----|- - - - |- - - - |
|0000|0000|0000|0000|8888|8888|10 10 10 12|12 12 12 12|

|----|----|----|----|
|----|----|----|----|
|----|----|----|----|
|5555|5555|5555|5555| Slide from the 12's into the 5's here.

(Outro)

This part is 'zoomed in' again.

|----|----|----|----|----|----|----|----|
|----|----|----|----|----|----|----|----|
|----|----|----|----|----|----|----|----|
|000-|0-0-|----|----|----|----|000-|000-|

|----|----|----|----|----|----|----|----|
|----|----|----|----|----|----|----|----|
|----|----|----|----|----|----|----|----|
|000-|0-0-|----|----|----|----|000-|000-|

|----|----|----|----|----|----|----|----|
|----|----|----|----|----|----|----|----|
|----|----|----|----|----|----|----|----|
|000-|0-0-|----|----|----|----|000-|000-|

|----|----|----|----|----|----|----|----|
|----|----|----|----|----|----|----|----|
|----|----|----|----|----|----|----|----|
|000-|0-0-|----|----|----|----|000-|0-0-|

|----|----|----|----|----|----|----|----|
|----|----|----|----|----|----|----|----|
|----|----|----|----|----|----|----|----|
|0---|0---|0---|0---|0---|0---|0---|0---| (x however many times until you want to end the song, because obviously you aren't going to have a studio fade ending if playing this live.)

guest
You may want to rate the tab now too:
select rating
Wanna post a correction for this tab? Suggest correction