Oops, an error
Loading. Please wait.

In Lust Chords

version 1
version 1

Whole song

Interactive

547 views 1 this week
no commentswrite comment
1 2 3 4 5
excellent!
x 3
add to favorites
launch autoscroll
font size
0
reset
transpose
0
reset
display chords
guitar tuner
Tab Pro tools
  • play this tab
  • loop segment
  • change instrument
  • show fretboard
  • metronome
×
Best way to learn
"In Lust"
Autoscroll
slow
fast
+/-
esc
set tempo
stop
Contributor
Difficulty
Tuning
novice
D G C F A D
Poisonblack - In Lust

Intro:


              C                                               C
          
D||-----------3-----------|-----------------------|-----------3-----------|-------------------|
A||-----0--1--------------|-----------------------|-----0--1--------------|-------------------|
F||-----------------------|-----------------------|-----------------------|-------------------|
C||--2--------------------|-----------------------|--2--------------------|-------------------|
G||-----------------------|-----------------------|-----------------------|-------------------|
D||-----------------------|-----------------------|-----------------------|-------------------|


              Am                      Am                      C                      C
 
D||-----------------------|-----------------------|-----------3--------|-----------3-------------|
A||--------0--1-----------|--------0--1-----------|-----0--1-----------|-----0--1--------1-------|
F||-----------------------|-----------------------|--------------------|-------------------------|
C||-----2-----------------|-----2-----------------|--2-----------------|--2-----------2----------|
G||--0--------------------|--0--------------------|--------------------|--------------------0--2-|
D||-----------------------|-----------------------|--------------------|-------------------------|


              C                          Am                         Em
    
D||-----------3--------------|-----------0--------------|-----------0-----------|
A||-----------1--------------|-----------1--------------|-----------0-----------|
F||--------0--------0--------|--------2--------2--------|-----------0-----------|
C||-----2--------2-----------|-----2--------2-----------|--------2--2-----------|
G||--3-----------------3--2--|--0-----------------------|-----2-----------------|
D||--------------------------|--------------------3--2--|--0--------------------|



C            C             Am             Am
  It comes again ... the state I love and hate
C            C            Am              Am
  It comes again ... I am lost yet I have faith
C           Am      Em
    I'm so high on you

C      Am      Em



C                C         Am                     Am
  The nature of you is to keep on fulfilling the need
C                C         Am                   Am
  The nature of me is to drown with the next defeat



C             Am         Em                  D
  Time after time you bleed your tears for me
C             Am          Em
  Time after time ... for me



E               D               C         Am             E
  When fear of life keeps crawling in she wipes it all away
                D               C
  Day turns to night repeats the sin
        Am                E
I'm in lust so let love reign



C            C                      Am             Am
  It comes again ... 'cause you're fuel to this desire
C            C                   Am                   Am
  It comes again ... 'cause you make the flames burn higher
C           Am      Em
    I'm so high on you



E               D               C         Am             E
  When fear of life keeps crawling in she wipes it all away
                D               C
  Day turns to night repeats the sin
        Am                E
I'm in lust so let love reign



Tab by Gašper Čefarin
comments
We did not receive enough feedback on this tab! Please rate:
print report bad tab
1 2 3 4 5
I want to post or [tab]
guest
You may want to rate the tab now too:
select rating
Please do not post tabs as comments. Select "correction" instead!