Oops, an error
Loading. Please wait.

Invisible Tab

832 views 1 this week
1 commentread comment
1 2 3 4 5
please rate
add to favorites
launch autoscroll
font size
0
reset
how to read this tab
guitar tuner
Tab Pro tools
  • play this tab
  • loop segment
  • change instrument
  • show fretboard
  • metronome
×
Best way to learn
"Invisible"
Autoscroll
slow
fast
+/-
esc
set tempo
stop
Contributor
Difficulty
Tuning
intermediate
D G C F A D
POISONBLACK: Invisible

Tuning: D G C F A D

Intro/solo

D|---------------------------------------------------------------------------------|
A|-----8-10~--8--------------------8-10~--8-------------------------15br-----------|
F|----9--------9-9~-----9-7~~\----9--------9-9~-----9-7~~--14-16-17------17-16-----|
C|--10---------------/10--------10---------------/10-------------------------------|
G|---------------------------------------------------------------------------------|
D|---------------------------------------------------------------------------------|


D|---------------------------------------------------------------------------------|
A|---------------------------------------------------------------------------------|
F|--19-17-16--14-------------------------------------------------------------------|
C|----------17---------------------------------------------------------------------|
G|----------------14-15--12~-------------------------------------------------------|
D|---------------------------------------------------------------------------------|

Verse 2x

Am G
F  Em
F  G  Am  D/Dsus4/D
F

Chorus
D|---------------------------------------------------------------------------------|
A|---------------------------------------------------------------------------------|
F|-----------7-7--5-5----------------------------7-7--5-5--------------------------|
C|--7--------7-7--5-5--7-5-5-5-5--5-7-5-5-5-5----7-7--5-5--7-5-5-5-5--5-7-5-5-5-5--|
G|--7-16X----5-5--3-3--7-5-5-5-5--5-7-5-5-5-5----5-5--3-3--7-5-5-5-5--5-7-5-5-5-5--|
D|--5------------------5-3-3-3-3--3-5-3-3-3-3--------------5-3-3-3-3--3-5-3-3-3-3--|
  PM.                      . .          . .                    . .          . .

D|---------------------------------------------------------------------------------|
A|---------------------------------------------------------------------------------|
F|--------------------------------------------4-4-5-5-5----------------------------|
C|--9\3-3-3-3-3-3-3-3-5-5-5-5-5-5-5-5-7-7-7-7-4-4-5-5-5-16x--3---------------------|
G|--9\3-3-3-3-3-3-3-3-5-5-5-5-5-5-5-5-7-7-7-7-2-2-3-7-7------3-25x-let-ring--------|
D|--9\1-1-1-1-1-1-1-1-3-3-3-3-3-3-3-3-5-5-5-5----------------1---------------------|


Solo II
D|---------------------------------------------------------------------------------|
A|-----8-10~--8--------------------------------------------------------------------|
F|----9--------9-9~-----9-7~~-----7--7*-7*-7*-7*-------7-9-10------7-9br7----------|
C|--10---------------/10-------7-9---------------7-9-10------7-9-10------9-10-9--7-|
G|---------------------------------------------------------------------------------|
D|---------------------------------------------------------------------------------|
                                        (this part I couldn't make correct,so it's my creation)


Verse 2x

Am G
F  Em
F  G  Am  D/Dsus4/D
F
Chorus


Pre solo
D|---------------------------------------------------------------------------------|
A|---------------------------------------------------------------------------------|
F|---------------------------------------------------------------------------------|
C|--7-7-7-7-7-7-7-7--7-7-7-7-7-7-7-------------------------------------------------|
G|--7-7-7-7-7-7-7-7--7-7-7-7-7-7-7-------------------------------------------------|
D|--5-5-5-5-5-5-5-5--5-5-5-5-5-5-5-------------------------------------------------|
  PM  . .   .   .    . . . . . . .

Solo III

D|---------------------------------------------------------------------------------|
A|------------------------------------17-18--17-17--15h17p15--17-15----------------|
F|---------------------------14-12-14------------------------------17-12~----------|
C|---------------------------------------------------------------------------------|
G|---------------------------------------------------------------------------------|
D|---------------------------------------------------------------------------------|

D|----------------------------------21b--------------------------------------------|
A|--15--15-17-18--17-20--17----20-20-----------------------------------------------|
F|----12------------------19----19-------------------------------------------------|
C|---------------------------------------------------------------------------------|
G|---------------------------------------------------------------------------------|
D|---------------------------------------------------------------------------------|
                                         The rest of solo is missing...


Verse

Am G
F  Em
F  G  Am  D/Dsus4/D
F
F  A G 3x


Outro
F   A  G  2x
F   G  A  C  D


If you have any question: mcmartini@seznam.cz
\,,/  \,,/
comments
We did not receive enough feedback on this tab! Please rate:
print report bad tab
1 2 3 4 5
1 comment total.
0 reply
SuizidKorken wrote on September 16 2010, 08:30 am

Sounds great so far, thanks alot!

I want to post or [tab]
guest
You may want to rate the tab now too:
select rating
Please do not post tabs as comments. Select "correction" instead!