Oops, an error
Loading. Please wait.

Leech Tab

198 views 3 this week
no commentswrite comment
1 2 3 4 5
please rate
add to favorites
launch autoscroll
font size
0
reset
how to read this tab
guitar tuner
Autoscroll
slow
fast
+/-
esc
set tempo
stop
Help us to improve Ultimate-Guitar.com Take our survey!
×
Contributor
Difficulty
novice
Tuning: Db tuning
Intro/Verse
|----------------------------------------------------------------------|
|-----------------------------------------------------Pinch-harmonics--|
|----------------------------------------------------------------------|
|----------------------------------------------------------------------|
|-3--3-----------------7-------3--3-----------------7^--5--7--8^--7--5-|
|-1--1--0--0--8--7--5----------1--1--0--0--8--7--5---------------------|
        .  .                         .  .           *   *  *  *   *  *
|----------------------------------------------------------|
|----------------------------------------------------------|
|----------------------------------------------------------|
|----------------------------------------------------------|
|-3--3-----------------7-------5----5--5--5--5--5--5--5--5-|
|-1--1--0--0--8--7--5----------3----3--3--3--3--3--3--3--3-|
        .  .            
|---------------------| 
|---------------------| 
|---------------------| 
|---------------------|  <<<----------------------------------------- 
|----2--2-----2-------|                                             ^ 
|-0--0--0--0--0--0--0-| 2x When going into the chorus dont play this^
  .        .     .  .
Chorus
|------------------------------------------------------------------------|
|------------------------------------------------------------------------|
|------------------------------------------------------------------------|
|-------------------7--7--4--4--4--4--4--4--4--4--7--7--7--7--7--7--7--7-|
|-4--4--4--7--7--7--5--5--2--2--2--2--2--2--2--2--5--5--5--5--5--5--5--5-|
|-2--2--2--5--5--5-------------------------------------------------------|

|------------------------------------------------------------------------|
|------------------------------------------------------------------------|
|------------------------------------------------------------------------|
|-9--9--9--9--9--9--9--9--------------------------4--4--4--4--4--4--4--4-|
|-7--7--7--7--7--7--7--7--------------------------2--2--2--2--2--2--2--2-|
|-------------------------3--3--3--1--1--1--0--0-------------------------|
                          
|------------------------------------------------------------------------|
|------------------------------------------------------------------------|
|------------------------------------------------------------------------|
|-7--7--7--7--7--7--7--7--9--9--9--9--9--9--9--9--11-11-11-11-11---------|
|-5--5--5--5--5--5--5--5--7--7--7--7--7--7--7--7--9--9--9--9--9--7--7--7-|
|----------------------------------------------------------------5--5--5-|

|------------------------------------------------------------------------|
|------------------------------------------------------------------------|
|------------------------------------------------------------------------|
|-4--4--4--4--4--4--4--4--7--7--7--7--7--7--7--7--9--9--9--9--9--9--9--9-|
|-2--2--2--2--2--2--2--2--5--5--5--5--5--5--5--5--7--7--7--7--7--7--7--7-|
|------------------------------------------------------------------------|

|------------------------------------------------------------------------|
|------------------------------------------------------------------------|
|------------------------------------------------------------------------|
|-------------------------4--4--4--4--4--4--4--4--7--7--7--7--7--7--7--7-|
|-------------------------2--2--2--2--2--2--2--2--5--5--5--5--5--5--5--5-|
|-3--3--3--1--1--1--0--0-------------------------------------------------|
  
|------------------------------------------------------------------------|
|------------------------------------------------------------------------|
|------------------------------------------------------------------------|
|-9--9--9--9--9--9--9--9-------------------------------------------------|
|-7--7--7--7--7--7--7--7--4--4--4--4--4--4--4--4--5--5--5--5--5--5--5--5-|
|-------------------------2--2--2--2--2--2--2--2--3--3--3--3--3--3--3--3-|

Riff
|------------------------------------------------------------------------|
|------------------------------------------------------------------------|
|------------------------------------------------------------------------|
|------------------------------------------------------------------------|
|-7--7--7--7-------------------------------------------------------------|
|-5--5--5--5--0---4/-7--7--5--7---2---5---1---2---1--0--1--4/-7--7--5--7-|
        .
|-------------------------------------------------------------------------|
|-------------------------------------------------------------------------|
|-------------------------------------------------------------------------|
|-------------------------------------------------------------------------|
|----------8^----------------------------------------------------7---7--7-|
|--2---5-------4--3--1--0--4/-7--7--5--7---2---5---1---2---1--0--5---5--5-|

|---------------------------------------|
|---------------------------------------|
|---------------------------------------|
|---------------------------------------|
|-7--7--7--7--7--7-----2--2-----2-------|
|-5--5--5--5--5--5--0--0--0--0--0--0--0-|
                    .        .     .  .

Play Intro/Verse

Play Chorus


|------------------------------------------------------|
|------------------------------------------------------|
|------------------------------------------------------|
|------------------------------------------------------|
|-7--7--7--7-----------9\0-------9\0--------9--9--7--9-|
|-5--5--5--5--0--------7\0-------7\0--------7--7--5--7-|
     .
Sorry dont know the solo 

Play chorus
comments
We did not receive enough feedback on this tab! Please rate:
print report bad tab
1 2 3 4 5
I want to post or [tab]
guest
You may want to rate the tab now too:
select rating
Please do not post tabs as comments. Select "correction" instead!