Oops, an error
Loading. Please wait.

Love Controlled Despair tab

13 views 1 this week
no commentswrite comment
1 2 3 4 5
3 more votes to show rating
add to favorites
×
Save as Personal and add changes to this tab that will be seen only by you. Learn more ›
×
You can save this tab as Personal to edit and correct it or add notes. All changes will be seen only by you. Learn more »
launch autoscroll
font size
0
reset
how to read this tab
guitar tuner
edit
Autoscroll
slow
fast
+/-
esc
set tempo
stop
The melody in the intro is played on a keyboard. The rhythm guitar plays this:

[Intro] x1
Play the open notes as written, but don't let them ring. Same with the fretted chords. These notes may be 
very slightly palm muted, but listen to the song to get the correct tone. 
C#|-------------------------------------------------------------------------------|
G#|-------------------------------------------------------------------------------|
E |-------------------------------------------------------------------------------|
B |-------------------------------------------------------------------------------|
F#|-0000---0000---0000-0000---0000---0000-3333---3333---3333-2222---2222----------|
B |-0000---0000---0000-0000---0000---0000-3333---3333---3333-2222---2222-0003~----|
                                                                         ***

C#|-------------------------------------------------------------------------------|
G#|-------------------------------------------------------------------------------|
E |-------------------------------------------------------------------------------|
B |---------------------------------------7777---5555---5555-3333---2222-2--------|
F#|-0000---0000---0000-0000---0000---0000-8888---7777---7777-5555---4444-4---0----|
B |-0000---0000---0000-0000---0000---0000------------------------------------0----|
                                                                             Let ring...

[Verse] x1
This is clean, played with delay.
C#|---5-------------5--------------3------------------------------------------|
G#|--------6--------------5-------------5---------6-----------6p5-------------|
E |-7---7---------7---7---------7----7---------7----7--7------7----7--5-------|
B |----------------------------------------------------------------------7----|
F#|---------------------------------------------------------------------------|
B |---------------------------------------------------------------------------|
  "To flee, and to be gone..."


C#|---5-------------5--------------3------------------------------------------|
G#|--------6--------------5-------------5---------6-----------6p5-------------|
E |-7---7---------7---7---------7----7---------7----7--7------7----7--5-------|
B |----------------------------------------------------------------------7----|
F#|---------------------------------------------------------------------------|
B |---------------------------------------------------------------------------|
  "To see, clearly what's beyond..."


[Pre-Chorus] x1
Still clean.
C#|------------------------5---------5---------5---------5-----------------------|
G#|-----------------------------6---------6---------6--------6---6---------------|
E |----------------------7---7-----7---7-----7---7-----7---7-----7---------------|
B |-5------------------------------------------------------------5---------------|
F#|-5------------------------------------------------------------5---------------|
B |-5------------------------------------------------------------5---------------|
     "I exist in desire, in my dark haven......"                  "I long to cleanse..."

C#|-----------------------------------------------|
G#|-----------------------------------------------|
E |-----------------------------------------------|
B |-8--------------10----------------=------------|
F#|-8--------------10-----------------------------|
B |-8--------------10--------03~--02~-------------|
  "...Regrets..."          [distorted]

[Chorus] x2
The grace notes are played very quickly before the chords. You don't really need to play them, 
but they're there.
C#|---------------------------------------------------------------------------|
G#|---------------------------------------------------------------------------|
E |---------------------------------------------------------------------------|
B |------------------55---------------------------------55--------------------|
F#|-00-XX---33-XX---033-XX-------------00-XX---33-XX---033-XX-----------------|
B |-00-XX--033-XX-------XX---0355553~--00-XX--033-XX-------XX---03~-02~-------|
           g        g        ******           g        g

This is the last chord played in the chorus, which is played behind the keyboard melody. 
Strum once and let ring. 
C#|--------------------------------|
G#|--------------------------------|
E |--------------------------------|
B |-0------------------------------|
F#|-0------------------------------|
B |-0------------------------------|

[Verse] x1
On the very last chord of the verse, play:
C#|-------------------------------|
G#|-6-----------------------------|
E |-7-----------------------------|
B |-5-----------------------------|
F#|-------------------------------|
B |--------------------03~---02~--|
                     [distorted] 

[Chorus] x2

[Bridge]
C#|---------------------------------------------------------------------------------------|
G#|---------------------------------------------------------------------------------------|
E |---------------------------------------------------------------------------------------|
B |---------------------------------------------------------------------------------------|
F#|-------------------------------------3h5-XX-5p3h5---XX-5p3-XX-3h5-XX-5p3h5---XX-5p3-XX-|
B |-00000000-00000000-00000000-0000\\\\-3h5-XX-5p3h5---XX-5p3-XX-3h5-XX-5p3h5---XX-5p3-XX-|
    ******** ******** ******** ****[slide]

C#|-----------------------------------------------------------------------------------------|
G#|-----------------------------------------------------------------------------------------|
E |-----------------------------------------------------------------------------------------|
B |-----------------------------------------------------------------------------------------|
F#|-0000---0000---0000-0000---0000---0000-3h5-XX-5p3h5---XX-5p3-XX-3h5-XX-5p3h5---XX-5p3-XX-|
B |-0000---0000---0000-0000---0000---0000-3h5-XX-5p3h5---XX-5p3-XX-3h5-XX-5p3h5---XX-5p3-XX-|
   "...haven..."

C#|-----------------------------------------------------------------------------------|
G#|-----------------------------------------------------------------------------------|
E |----------------------------------------------------------------------------3---2--|
B |--------------------------0---000000-0h3-333333-----------------------------4---3--|
F#|-5h7-XX-7p5h7-XXXX-7p5-XX-0h1-111111-1h2-222222--0-0-------------------------------|
B |-5h7-XX-7p5h7-XXXX-7p5-XX------------------------0-0---------------------1----1----|
   "...regrets..."               ******     ******         "...is you to be there..."

[Outro]
From here on out, the entire song is a half step up. So the chord patterns and rhythm are exactly the same,
but moved up one fret.
      
[altered chorus] x2
C#|---------------------------------------------------------------|
G#|---------------------------------------------------------------|
E |---------------------------------------------------------------|
B |--------------66-----------------------------66----------------|
F#|-11-XX--44-XX-44-XX-------------11-XX--44-XX-44-XX-------------|
B |-11-XX-044-XX----XX---1466664~--11-XX-044-XX----XX---1-4~-1-3~-|
          g               *****

[altered intro riff played behind keyboard melody] 
C#|-----------------------------------------------------------------------------|
G#|-----------------------------------------------------------------------------|
E |-----------------------------------------------------------------------------|
B |-----------------------------------------------------------------------------|
F#|-1111---1111---1111-1111---1111---1111-4444---4444---4444-3333---3333----4---|
B |-1111---1111---1111-1111---1111---1111-4444---4444---4444-3333---3333-1114~--|
                                                                         *** 
C#|-----------------------------------------------------------------------------|
G#|-----------------------------------------------------------------------------|
E |-----------------------------------------------------------------------------|
B |---------------------------------------8888---6666---6666-4444---3333-3------|
F#|-1111---1111---1111-1111---1111---1111-9999---8888---8888-6666---5555-5------|
B |-1111---1111---1111-1111---1111---1111---------------------------------------|



************************************

| ~  Vibrato
| p  Pull-off
| h  Hammer-on
| \  Slide down
 

************************************

            
            
Suggest correction
Creating personal tab
Creating personal tab
You can edit any tab online and save it as your Personal.

You can edit, replace or remove any tab part or add personal notes – all changes will be seen only by you.

Personal tabs can be accessed anytime from any device, even offline.
Learn more »
Give kudos to tab author, rate the tab!
1 2 3 4 5
comments
print report bad tab
guest
You may want to rate the tab now too:
select rating
Wanna post a correction for this tab? Suggest correction