Oops, an error
Loading. Please wait.

Maggot Song Tab

283 views 1 this week
no commentswrite comment
1 2 3 4 5
3 more votes to show rating
add to favorites
launch autoscroll
font size
0
reset
how to read this tab
guitar tuner
Autoscroll
slow
fast
+/-
esc
set tempo
stop
Help us to improve Ultimate-Guitar.com Take our survey!
×
Author
Difficulty
Tuning
novice
C# G# C# F# A# D#
Intro               
|----------------------------------------------|
|----------------------------------------------|
|----------------------------------------------|
|5-3--3-2--------0-5-4-5--5-4-5--5-4-5-2-2-1-0-|
|5-3--3-2--------0-3-2-3--3-2-3--3-2-3-2-2-1-0-|
|5-3--3-2-2-3-5--0---------------------2-2-1-0-|
          . . .
|------------------------------------------|
|------------------------------------------|
|------------------------------------------|
|0-5-4-5--5-4-5-2-3-5-5-3-2-0-5-4-5--5-4-5-|
|0-3-2-3--3-2-3-2-3-5-5-3-2-0-3-2-3--3-2-3-|
|0--------------2-3-5-5-3-2-0--------------|

|------------------------------------------------|
|------------------------------------------------|
|------------------------------------------------|
|-5-4-5-2-2-1-0-0-5-4-5-------5-3--3-2-------2-0-|
|-3-2-3-2-2-1-0-0-3-2-3-------5-3--3-2-------2-0-|
|-------2-2-1-0-0-------2-3-5-5-3--3-2-2-3-5-2-0-|
                        . . .          . . .
Verse
|--------------------------------------------------|
|--------------------------------------------------|
|--------------------------------------------------|
|------------------2-0--0--------2-0--0--------2-0-|
|------------------2-0--0--------2-0--0--------2-0-|
|------------------2-0--0--2-3-5-2-0--0--2-3-5-2-0-|
                           . . .         . . .
|------------------------------------------------|
|------------------------------------------------|
|------------------------------------------------|
|-----2-2-1-0-------2-2-1-0-------2-2-1-0-2-0--0-|
|-----2-2-1-0-------2-2-1-0-------2-2-1-0-2-0--0-|
|-----2-2-1-0-------2-2-1-0-------2-2-1-0-2-0--0-|

|---------------------------------------|
|---------------------------------------|
|---------------------------------------|
|-------2-0--0--------2-0--0--------2-0-|
|-------2-0--0--------2-0--0--------2-0-|
|-2-3-5-2-0--0--2-3-5-2-0--0--2-3-5-2-0-|
  . . .         . . .         . . .     
|--------------------------|
|--------------------------|
|--------------------------|
|-----7--------------------|
|-----7--7-7-7-7-7-7-7-7-7-|
|-----7--7-7-7-7-7-7-7-7-7-|
         . . . . . . . . .
Chorus
|-----------------------------------------------------------------|
|-----------------------------------------------------------------|
|-----------------------------------------------------------------|
|-2-2-2-2-2-2-2-2-2-2-2-2-2-2-2-2-2-2-2-2-2-2-2-2-4-4-4-4-4-4-4-4-|
|-0-0-0-0-0-0-0-0-0-0-0-0-0-0-0-0-2-2-2-2-2-2-2-2-2-2-2-2-2-2-2-2-|
|---------------------------------2-2-2-2-2-2-2-2-----------------|

|--------------------------------------------------------------|
|--------------------------------------------------------------|
|--------------------------------------------------------------|
|2-2-2-2-2-2-2-2-2-2-2-2-2-2-2-2--------------4--4-4-4-4-4-4-4-|
|0-0-0-0-0-0-0-0-0-0-0-0-0-0-0-0--------------2--2-2-2-2-2-2-2-|
|--------------------------------0-2-0-3~-3-2------------------|

|----------------------------------------------------------------|
|----------------------------------------------------------------|
|----------------------------------------------------------------|
|2-2-2-2-2-2-2-2-2-2-2-2-2-2-2-2-2-2-2-2-2-2-2-2-4-4-4-4-4-4-4-4-|
|0-0-0-0-0-0-0-0-0-0-0-0-0-0-0-0-2-2-2-2-2-2-2-2-2-2-2-2-2-2-2-2-|
|--------------------------------2-2-2-2-2-2-2-2-----------------|

|-------------------------------------------------|
|-------------------------------------------------|
|-------------------------------------------------|
|2-2-2-2-2-2-2-2-2-2-2-2-2-2-2-2-5--5-5-5-5-------|
|0-0-0-0-0-0-0-0-0-0-0-0-0-0-0-0-5--5-5-5-5-------|
|--------------------------------5--5-5-5-5-2-3-5-|
                                            . . .

Play Intro

Play Verse

Play Chorus

Riff
|------------------------------------------------------|
|------------------------------------------------------|
|------------------------------------------------------|
|5-3--3-2-------0--------------------------------------|
|5-3--3-2-------0-----3-5-----7-9-----11-13---13-15-16-|
|5-3--3-2-2-3-5-0-0-0-----0-0-----0-0-------0----------|
          . . .   . .     . .     . .       .
|-------------------------------------------------------|
|-------------------------------------------------------|
|-------------------------------------------------------|
|-----------------0-----0-3-----3-0---------------------|
|----16-15-----15-0-----0-3-----3-0-----3-5-----7-9-----|
|0-0-------0-0----0-0-0-0-3-0-0-3-0-0-0-----0-0-----0-0-|
 . .       . .      . .     . .     . .     . .     . .
|----------------------------------------------|
|----------------------------------------------|
|----------------------------------------------|
|----------------------------------------------|
|11-13---13-15-16-----16-15-----15-------------|
|------0----------0-0-------0-0----0/7-5-3-2-3-|
       .          . .       . .    .         
|-----------------------------------------------------|
|-----------------------------------------------------|
|-----------------------------------------------------|
|0-----3-5-----5-7-----7-9---9-11-12-----12-11-----11-|
|0-----3-5-----5-7-----7-9---9-11-12-----12-11-----11-|
|0-0-0-3-5-0-0-5-7-0-0-7-9-0-9-11-12-0-0-12-11-0-0-11-|
   . .     . .     . .     .         . .       . .
|----------------------------------------------------|
|----------------------------------------------------|
|----------------------------------------------------|
|0-----0-3-----3-------3-5-----5-7-----7-9---9-11-12-|
|0-----0-3-----3-------3-5-----5-7-----7-9---9-11-12-|
|0-0-0-0-3-0-0-3-0-0-0-3-5-0-0-5-7-0-0-7-9-0-9-11-12-| 
   . .     . .   . . .     . .     . .     .
|----------------------------------------------------------------|
|----------------------------------------------------------------|
|----------------------------------------------------------------|
|----12-11-----10-----------------------13-12-10-12--10-12-13-10~|
|----12-11-----10------------------------------------------------|
|0-0-12-11-0-0-10--10-10-10-10-10-10-10--------------------------|
 . .       . .     .  .  .  .  .  .  .

Play Chorus 3x its played alittle different

End
|--------------------|
|--------------------|
|--------------------|
|-5-3--3-2-------3-0-|
|-5-3--3-2-------3-0-|
|-5-3--3-2-2-3-5-3-0-|
          . . .
Suggest correction
Give kudos to tab author, rate the tab!
1 2 3 4 5
comments
print report bad tab
guest
You may want to rate the tab now too:
select rating
Wanna post a correction for this tab? Suggest correction