Oops, an error
Loading. Please wait.

Mercury Falling Tab

version 2
version 2

Whole song

Interactive

415 views 1 this week
no commentswrite comment
1 2 3 4 5
please rate
add to favorites
launch autoscroll
font size
0
reset
how to read this tab
guitar tuner
Tab Pro tools
  • play this tab
  • loop segment
  • change instrument
  • show fretboard
  • metronome
Autoscroll
slow
fast
+/-
esc
set tempo
stop
Contributor
Difficulty
Tuning
intermediate
C G C F A D
-------------------------------------------------------------------------------
                             Mercury Falling - Poisonblack
-------------------------------------------------------------------------------
Tabbed by: Tume
Email:tume95@windowslive.com

Tuning: Drop C

This tab may contain some mistakes.. In case you find any please contact me :)
                                |Intro|

This riff here comes 2 times before the Guitar 2 kicks in.
D|-----------------------9-8-------------------------------------------------|
A|--------11------9----------9-----------------------------------------------|
F|---10------10-----10-------------------------------------------------------|
C|-8----8-------8------8-----------------------------------------------------|
G|---------------------------------------------------------------------------|
C|---------------------------------------------------------------------------|

Guitar 1
D|-----------------------9-8-------------------------------------------------|
A|--------11------9----------9-----------------------------------------------|
F|---10------10-----10-------------------------------------------------------|
C|-8----8-------8------8-----------------------------------------------------|
G|---------------------------------------------------------------------------|
C|---------------------------------------------------------------------------|
Guitar 2
D|---------------------------------------------------------------------------|
A|---------------------------------------------------------------------------|
F|---------------------------------------------------------------------------|
C|-8-8-8-8-8-8-8-8-8-8-8-8---------------------------------------------------|
G|-8-8-8-8-8-8-8-8-8-8-8-8---------------------------------------------------|
C|-8-8-8-8-8-8-8-8-8-8-8-8---------------------------------------------------|
Guitar 1
D|-----------------------9-8-------------------------------------------------|
A|--------11------9----------9-----------------------------------------------|
F|---10------10-----10-------------------------------------------------------|
C|-8----8-------8------8-----------------------------------------------------|
G|---------------------------------------------------------------------------|
C|---------------------------------------------------------------------------|
Guitar 2
D|---------------------------------------------------------------------------|
A|---------------------------------------------------------------------------|
F|---------------------------------------------------------------------------|
C|-11-11-11-11-11-11-11-11-11-11-11-11---------------------------------------|
G|-11-11-11-11-11-11-11-11-11-11-11-11---------------------------------------|
C|-11-11-11-11-11-11-11-11-11-11-11-11---------------------------------------|
Guitar 1
D|-----------------------9-8-------------------------------------------------|
A|--------11------9----------9-----------------------------------------------|
F|---10------10-----10-------------------------------------------------------|
C|-8----8-------8------8-----------------------------------------------------|
G|---------------------------------------------------------------------------|
C|---------------------------------------------------------------------------|
Guitar 2
D|---------------------------------------------------------------------------|
A|---------------------------------------------------------------------------|
F|---------------------------------------------------------------------------|
C|-6-6-6-6-6-6-6-6-6-6-6-6---------------------------------------------------|
G|-6-6-6-6-6-6-6-6-6-6-6-6---------------------------------------------------|
C|-6-6-6-6-6-6-6-6-6-6-6-6---------------------------------------------------|
Guitar 1
D|-----------------------9-8-------------------------------------------------|
A|--------11------9----------9-----------------------------------------------|
F|---10------10-----10-------------------------------------------------------|
C|-8----8-------8------8-----------------------------------------------------|
G|---------------------------------------------------------------------------|
C|---------------------------------------------------------------------------|
Guitar 2
D|---------------------------------------------------------------------------|
A|---------------------------------------------------------------------------|
F|---------------------------------------------------------------------------|
C|-4-4-4-4----6-6-6-6--------------------------------------------------------|
G|-4-4-4-4----6-6-6-6--------------------------------------------------------|
C|-4-4-4-4----6-6-6-6--------------------------------------------------------|

Play The Intro 2 times.


                                |Verse|

D|---------------------------------------------------------------------------|
A|---------------------------------------------------------------------------|
F|---------------------------------------------------------------------------|
C|-4-3-4---4-3-4-----6/8-8\6-8-8---8-10-8-6-8-6------------------------------|
G|-4-3-4---4-3-4-----6/8-8\6-8-8---6-8--6-4-6-4------------------------------|
C|-4-3-4---4-3-4-----6/8-8\6-8-8---------------------------------------------|
            I'm not 100% sure about this ^

                                |Chorus|
D|---------------------------------------------------------------------------|
A|---------------------------------------------------------------------------|
F|---------------------------------------------------------------------------|
C|-8-8-8-8-8-8-8-8-8-8-8-8--11-11-11-11-11-11-11-11-11-11-11-11--------------|
G|-8-8-8-8-8-8-8-8-8-8-8-8--11-11-11-11-11-11-11-11-11-11-11-11--------------|
C|-8-8-8-8-8-8-8-8-8-8-8-8--11-11-11-11-11-11-11-11-11-11-11-11--------------|
 
D|---------------------------------------------------------------------------|
A|---------------------------------------------------------------------------|
F|---------------------------------------------------------------------------|
C|-6-6-6-6-6-6-6-6-6-6-6-6--4-4-3-4--8-8-6-8---8-8--8------------------------|
G|-6-6-6-6-6-6-6-6-6-6-6-6--4-4-3-4--6-6-4-6---6-6--6------------------------|
C|-6-6-6-6-6-6-6-6-6-6-6-6--4-4-3-4------------------------------------------|

D|---------------------------------------------------------------------------|
A|---------------------------------------------------------------------------|
F|---------------------------------------------------------------------------|
C|-8-8-8-8-8-8-8-8-8-8-8-8--11-11-11-11-11-11-11-11-11-11-11-11--------------|
G|-8-8-8-8-8-8-8-8-8-8-8-8--11-11-11-11-11-11-11-11-11-11-11-11--------------|
C|-8-8-8-8-8-8-8-8-8-8-8-8--11-11-11-11-11-11-11-11-11-11-11-11--------------|

D|---------------------------------------------------------------------------|
A|---------------------------------------------------------------------------|
F|---------------------------------------------------------------------------|
C|-6-6-6-6-6-6-6-6-6-6-6-6--4-4-3-4--6-6-4-6---6-6-6-8-----------------------|
G|-6-6-6-6-6-6-6-6-6-6-6-6--4-4-3-4--6-6-4-6---6-6-6-8-----------------------|
C|-6-6-6-6-6-6-6-6-6-6-6-6--4-4-3-4--6-6-4-6---6-6-6-8-----------------------|
                             
                              |Interlude| (played a couple of times.)
                       
D|---------------------------------------------------------------------------|
A|---------------------------------------------------------------------------|
F|---------------------------------------------------------------------------|
C|-------1-----3-----4-----3-----1-------------------------------------------|
G|-4-1-1---1-1---1-1---1-1---1-1---1-1---------------------------------------|
C|---------------------------------------------------------------------------|
 
D|---------------------------------------------------------------------------|
A|---------------------------------------------------------------------------|
F|-----------------------------1---------------------------------------------|
C|-------1-----3-----4-----3-------------------------------------------------|
G|-4-1-1---1-1---1-1---1-1---1-----------------------------------------------|
C|---------------------------------------------------------------------------|

D|---------------------------------------------------------------------------|
A|---------------------------------------------------------------------------|
F|---------------------------------------------------------------------------|
C|-------1-----3-----4-----3-----1-------------------------------------------|
G|-4-1-1---1-1---1-1---1-1---1-1---1-1---------------------------------------|
C|---------------------------------------------------------------------------|

D|---------------------------------------------------------------------------|
A|---------------------------------------------------------------------------|
F|---------------------------------------------------------------------------|
C|------------3-----4-3p1----------------------------------------------------|
G|-4p1-1-6p1-1---1-1------4--------------------------------------------------|
C|---------------------------------------------------------------------------|

                        Play the intro riff (below)
D|-----------------------9-8-------------------------------------------------|
A|--------11------9----------9-----------------------------------------------|
F|---10------10-----10-------------------------------------------------------|
C|-8----8-------8------8-----------------------------------------------------|
G|---------------------------------------------------------------------------|
C|---------------------------------------------------------------------------|
                    Solo (I'm not 100% sure about this)
D|---------------------------------------------------------------------------|
A|--------------------------11--9--------------------------------------------|
F|--------8--10----10--8----------10----10--8------8-8-8h10-8-----------8----|
C|--8--11----------------11--------------------11-------------11--8h11-------|
G|---------------------------------------------------------------------------|
C|---------------------------------------------------------------------------|
 
D|-----------------------8--11--11b(13)br11p8--------------------------------|
A|-------------9----9h11----------------------11b(13)br11p8------------------|
F|--------8-10---10------------------------------------------10b(12)br10-8-10|
C|--8--11--------------------------------------------------------------------|
G|---------------------------------------------------------------------------|
C|---------------------------------------------------------------------------|


D|---------------------------------------------------------------------------|
A|---------------------------------------------------------------------------|
F|------8h10-10p8-10*~8-10*~8-10~-8h10p8---------------------------------------|
C|-8h10--------------------------------11--10--11-11p10p8-8/-----------------|
G|---------------------------------------------------------------------------|
C|---------------------------------------------------------------------------|

*= Pinch harmonics


************************************

| /   slide up
| \   slide down
| h   hammer-on
| p   pull-off
| ~   vibrato
| +   harmonic
| x   Mute note
| b   Bend
| pb  Pre-bend
| br  Bend release
| pbr Pre-bend release
| brb Bend release bend

************************************
comments
We did not receive enough feedback on this tab! Please rate:
print report bad tab
1 2 3 4 5
I want to post or [tab]
guest
You may want to rate the tab now too:
select rating
Please do not post tabs as comments. Select "correction" instead!