Oops, an error
Loading. Please wait.

My Sun Shines Black Tab

267 views 1 this week
no commentswrite comment
1 2 3 4 5
3 more votes to show rating
add to favorites
launch autoscroll
font size
0
reset
how to read this tab
guitar tuner
Autoscroll
slow
fast
+/-
esc
set tempo
stop
Help us to improve Ultimate-Guitar.com Take our survey!
×
Author
Intro 
|--------------------|
|7h9-7-----10-9-7-8-0|
|--------------------|
|---0--0-0---0-0-0-0-|
|--------------------|
|--------------------|12x
    .  . .   . . . . 
Verse
|--------------------------------|
|--------------------------------|
|--------------------------------|
|--------------------------------|
|--------------------------------|
|-2p0-0-0-0-2p0-0-2p0-0-0-0-0-0-0|6x
      . . .     .     . . . . . .
|--------------------------------|
|--------------------------------|
|--------------------------------|
|--------------------------------|
|-2p0-------2p0---2p0------------|
|-2p0-0-0-0-2p0-0-2p0-0-0-0-0-0-0|4x
      . . .     .     . . . . . .
Pre-chorus
|-----------------------------19b(19b)|Bend up than down
|-21~~~~~20~~~~~19~~~~~17~~~~~--------|
|-------------------------------------|
|-------------------------------------|
|-------------------------------------|
|-------------------------------------|

Chorus
|------------------------------------------------|
|------------------------------------------------|
|-9-9-9-9-9-9-9-9-9-9-9-9-8-8-8-8-9-9-9-9-9-9-9-9|
|------------------------------------------------|
|-7-7-7-7-7-7-7-7-7-7-7-7-6-6-6-6-7-7-7-7-7-7-7-7|
|------------------------------------------------|

|--------------------------------------------------------|
|--------------------------------------------------------|
|-9-9-9-9-8-8-8-8-6-6-6-6-6-6-6-6-6-6-6-6----------------|
|-----------------------------------------6-4---4^-------|
|-7-7-7-7-6-6-6-6-4-4-4-4-4-4-4-4-4-4-4-4-----7-----6^---|
|--------------------------------------------------------|

|------------------------------------------------|
|------------------------------------------------|
|-9-9-9-9-9-9-9-9-9-9-9-9-8-8-8-8-9-9-9-9-9-9-9-9|
|------------------------------------------------|
|-7-7-7-7-7-7-7-7-7-7-7-7-6-6-6-6-7-7-7-7-7-7-7-7|
|------------------------------------------------|
                                          
|-------------------------------------------------||Natural-Harmonics------|
|-------------------------------------------------||-----------------------|
|-9-9-9-9-8-8-8-8-6-6-6-6-6-6-6-6-6-6-6-6---------||-----------------------| 
|-----------------------------------------6---4---||5x-5x-5x-5x-5x-5x-5x-5x|
|-7-7-7-7-6-6-6-6-4-4-4-4-4-4-4-4-4-4-4-4-6---4---||5x-5x-5x-5x-5x-5x-5x-5x|
|-----------------------------------------6---4---||5x-5x-5x-5x-5x-5x-5x-5x|
                                                    
Play Intro                                           

Play Verse

Play Pre-chorus

Play Chorus

|------------------------------------------------------------------------|
|------------------------------------------------------------------------|
|------------------------------------------------------------------------|
|------------------------------------------------------------------------|
|-5p0--4p0--5p0-7p0-5p0--4p0--5p0-7p0-5p0--4p0--5p0-7p0-5p0--4p0--5p0-7p0|
|-5p0--4p0--5p0-7p0-5p0--4p0--5p0-7p0-5p0--4p0--5p0-7p0-5p0--4p0--5p0-7p0|

Solo
|----------/16---~~~--------------------/16---~~~---------|
|--------15---------------------------15------------------|
|-----14------------/15p13---------14------------/11h13p11|
|-/12--------------------------/12------------------------|
|---------------------------------------------------------|
|---------------------------------------------------------|

|--------------------------------------------------------------------|
|--------------------------------------------------------------------|
|~~10~~9~~7-4-5-6-7-7-7-7-7-7-7-7-7-7-7-7/8-8-8-8/12-12-12-12\8-8-8-8|
|--------------------------------------------------------------------|
|--------------------------------------------------------------------|
|--------------------------------------------------------------------|

|----------------------------------------------------------------|
|-------------------------7-7-7-7-7-7-7-7-7-7-7-7\4-4-4-4/7-7-7-7|
|/9-9-9-9-9-9-9-9-9-9-9-9----------------------------------------|
|----------------------------------------------------------------|
|----------------------------------------------------------------|
|----------------------------------------------------------------|

|-----------------------/12-12-12-12/18-18-18~~18-----18-----18|
|7-7-7-7-7-7-7-7/9-9-9-9--------------------------21^----21^---|
|----------------------------------------------Let-it-ring-----|
|--------------------------------------------------------------|
|--------------------------------------------------------------|
|--------------------------------------------------------------|

|-----18-----18-18~~\|
|-21^----21^---------|
|--------------------|
|--------------------|
|--------------------|
|--------------------|

Play Chorus 2x

|Natural-Harmonics------|
|-----------------------|
|-----------------------|
|5x-5x-5x-5x-5x-5x-5x-5x|
|5x-5x-5x-5x-5x-5x-5x-5x|
|5x-5x-5x-5x-5x-5x-5x-5x|

Play intro

Im a not 100% on the solo but its close.
Suggest correction
Give kudos to tab author, rate the tab!
1 2 3 4 5
comments
print report bad tab
guest
You may want to rate the tab now too:
select rating
Wanna post a correction for this tab? Suggest correction