Oops, an error
Loading. Please wait.

Pain Becomes Me Chords

version 2
version 2

Whole song

Interactive

845 views 3 this week
no commentswrite comment
1 2 3 4 5
x 5
add to favorites
launch autoscroll
font size
0
reset
transpose
0
reset
display chords
guitar tuner
Autoscroll
slow
fast
+/-
esc
set tempo
stop
Help us to improve Ultimate-Guitar.com Take our survey!
×
Author
Difficulty
Tuning
novice
D G C F A D
Poisonblack - Pain Becomes Me

Tunng: D (1 step down)


Intro:

                  Am                                  G

d|----------------------------------|----------------------------------|
A|------1-----0---------------------|------0-----1-----3-----1---0---1-|
F|----------------0-----------------|----0-----0-----0-----0-----------|
C|----2-----2-----------------------|----------------------------------|
G|--0-----0-----0-------------------|----------------------------------|
D|----------------------------------|--3-----3-----3-----3-----3---3---|



Am             G
All this time I've been dreaming of it
Am            G                        
All this time it's been haunting in my head
F
Tempting me,
           Am          G           F
inviting me to fall asleep in its arms

To fall from grace,
               Am          E  F 
to breathe its ever-dimming dusk



Am             
Through my eyes
G
you could see the hurt I crave
Am
Through my eyes
G
you'd see there's nothing left to save
F
I heard you said: "There's a light up ahead",
Am        G                    
but I am heading towards a dead end
F
I just can't say no,
                 Am                E   F
I just can't let go for it's got me bent




Chorus:

Am            G        F           G            Am
I crave therefore I am and that is all I ever feel
               G
I hope you'd understand ...
F                   E      
One love, one pain, one enemy
Am          G     F           G               Am    
I toast to misery as I dig into the devils bone
          G          F
And for eternity the pain became me
Dm                   E
and won't leave me alone


d|--------------------------|----------------------------------|----------------------------------|
A|--------------------------|----------------------------------|----------------------------------|
F|--------------------------|----------------------------------|------------------------------7-9-|
C|--------------------------|----------------------------------|----------------------------------|
G|--------------------7-5-7-|--7-8-8-----8-7-5-7-8-8-----8-7-5-|--5-7-7-----7-5-3-3-5-5-------5-7-|
D|--------------------------|----------------------------------|----------------------------------|



|----------------------------------|----------------------------------|
|----6-6-----6-------6-6-----6-----|----------------------------------|
|--9-----------9-7-9-----------9-7-|--7-9-9-----7-5-4---4/5-5---------|
|----------------------------------|----------------------------------|
|--7-8-8-----8-7-5-7-8-8-----8-7-5-|--5-7-7-----5-3-2---2/3-3---------|
|----------------------------------|----------------------------------|



Am            G        F           G            Am
I crave therefore I am and that is all I ever feel
               G
I hope you'd understand ...
F                   E      
One love, one pain, one enemy
Am          G     F           G               Am    
I toast to misery as I dig into the devils bone
          G          F
And for eternity the pain became me
Dm                   E
and won't leave me alone



Tab by Gašper Čefarin
Suggest correction
comments
print report bad tab
guest
You may want to rate the tab now too:
select rating
Wanna post a correction for this tab? Suggest correction