Oops, an error
Loading. Please wait.

Raivotar Tab

279 views 1 this week
no commentswrite comment
1 2 3 4 5
please rate
add to favorites
launch autoscroll
font size
0
reset
how to read this tab
guitar tuner
Autoscroll
slow
fast
+/-
esc
set tempo
stop
Help us to improve Ultimate-Guitar.com Take our survey!
×
Author
Difficulty
Tuning
novice
B F# B E G# C#
Intro/Chorus 
|----------------------------------------------------------------------------|
|----------------------------------------------------------------------------|
|--------------7--7--7-----9--9--9-----12--12--12-----10----5---5--5--5--5--5|
|-5--3--5--0---5--5--5-----7--7--7-----10--10--10-----8-----5---5--5--5--5--5|
|-5--3--5--0---5--5--5-x-x-7--7--7-x-x-10--10--10-x-x-8-x-x-3---3--3--3--3--3|
|-5--3--5--0-----------------------------------------------------------------|


|----------------------------------------------------------------------|
|----------------------------------------------------------------------|
|--4---4--4--4---------------7--7--7-----10-10-10-----9--9--9-----7----|
|--4---4--4--4--5--3--5--0---5--5--5-----8--8--8------7--7--7-----5----|
|--2---2--2--2--5--3--5--0---5--5--5-x-x-8--8--8--x-x-7--7--7-x-x-5-x-x|
|---------------5--3--5--0---------------------------------------------|

|----------------------------------------------|
|----------------------------------------------|
|-9---9--9--9--9--9-----9---9--9--9------------|
|-5---5--5--5--5--5-----5---5--5--5--5--3--1--0|
|-7---7--7--7--8--7-x-x-7---7--7--7--5--3--1--0|
|------------------------------------5--3--1--0|

Verse 1
|------------------------------------------------------------|
|------------------------------------------------------------|
|------------------------------------------------------------|
|--7--7--7---5--5--5---3--3--3---2--2--2---7--7--7---5--7--5-|
|--5--5--5---7--7--7---5--5--5---3--3--3---5--5--5---7--7--7-|
|----------0---------0---------0---------0---------0---------|
           .         .         .         .         .
|----------------------------------------------------------------|
|----------------------------------------------------------------|
|----------------------------------------------------------------|
|----------0------------0--7--7--7---5--5--5---3--3--3---2--2--2-|
|----------0------------0--5--5--5---7--7--7---5--5--5---3--3--3-|
|-0--0--0--0--0--0--0-0-0----------0---------0---------0---------|
  .  .  .     .  .  . .            .         .         .
|---------------------------------------|
|---------------------------------------|
|---------------------------------------|
|--7--7--7---5--5--5---3--3--3---2--2--2|
|--5--5--5---7--7--7---5--5--5---3--3--3|
|0---------0---------0---------0--------| x2
 .         .         .         .
Pre chorus 
|-----------------------|
|-----------------------|   
|-----------------------|   
|-3--3--3--3--3--3--3--3|   
|-1--1--1--1--1--1--1--1|   
|-----------------------| x4 on the 4th time, at the end add 2 more strums


|-----------------------------------------|
|-----------------------------------------|
|-----------------------------------------|
|-----------------------------------------|
|-0--0--0---0--0--0---0--0--0---0---------|
|-0--0--0---0--0--0---0--0--0---0--0-0-0-0|
                                   . . . .
|-----------------------|
|-----------------------|   
|-----------------------|   
|-3--3--3--3--3--3--3--3|   
|-1--1--1--1--1--1--1--1|   
|-----------------------| x4 on the 4th time, at the end add 2 more strums


|--------------|
|--------------|
|--------------|
|-5-----7--7--7|
|-5-----7--7--7|
|-5-----7--7--7|


Play Intro/chorus


Verse 2
|-----------------------------------------------------------|
|-----------------------------------------------------------|
|-----------------------------------------------------------|
|--0--0-----------5--5--5---7--7--7-----------0------------0|
|--0--0-----------7--7--7---5--7--5-----------0------------0|
|--0--0-------------------0----------0--0--0--0--0--0--0-0-0|
                          .          .  .  .     .  .  . .
|-----------------------------------------------------------|
|-----------------------------------------------------------|
|-----------------------------------------------------------|
|--7--7--7---5--5--5---3--3--3---2--2--2---7--7--7---5--5--5|
|--5--5--5---7--7--7---5--5--5---3--3--3---5--5--5---7--7--7|
|----------0---------0---------0---------0---------0--------|
           .         .         .         .         .
|----------------------------------------|
|----------------------------------------|
|----------------------------------------|
|---3--3--3---2--2--2---7--7--7---5--5--5|
|---5--5--5---3--3--3---5--5--5---7--7--7|
|-----------0---------0---------0--------|
            .         .         .
|----------------------------------------|
|----------------------------------------|
|----------------------------------------|
|---3--3--3---2--2--2---7--7--7---5--7--5|
|---5--5--5---3--3--3---5--5--5---7--7--7|
|-0---------0---------0---------0--------|
  .         .         .         .
|-------------------------|
|-------------------------|
|-------------------------|
|-----------0------------0|
|-----------0------------0|
|--0--0--0--0--0--0--0-0-0|
   .  .  .     .  .  . . 
|---------------------------------------------------------------------|
|---------------------------------------------------------------------|
|---------------------------------------------------------------------|
|--7--7--7---5--5--5---3--3--3---2--2--2---7--7--7---5--5--5---5--5--5|
|--5--5--5---7--7--7---5--5--5---3--3--3---5--5--5---7--7--3---3--3--3|
|----------0---------0---------0---------0---------0------------------|
           .         .         .         .         .
|---------------------------|
|---------------------------|
|---------------------------|
|--5--5--5--5--5--5--5--5--5|
|--3--3--3--3--3--3--3--3--3|
|---------------------------|


Play Intro/Chorus

Pre-Solo
|-------------------------------------------------------|
|-------------------------------------------------------|
|-------------------------------------------------------|
|--0--0-------------------------------------------------|
|--0--0-------------------------------------------------|
|--0--0-------------------------------------------------|


Solo Part 1          Part 2 Play 2x     
|-------------------|---------------------------------------|
|-------------------|-----------Pinch-Harmonics-------------|
|-------------------|-------^-------^-------^-------^-------|
|-3--3--3---3--3--3-|-------7-------5-------4-------7-------|
|-1--1--1---1--1--1-|-0-5-0---0-5-0---0-5-0---0-5-0---0-5-0-|
|-------------------|---------------------------------------|
                            *       *       *       *
|--------------------------------------------------------------|
|--------------------------------------------------^-----------|
|^-------^-------------------------------10----10/14--14-12-10~|
|5-------4---5------5----5-5--2-3--3--12----12-----------------|
|--0-5-0---0-3--0-0-3--0-3-3--0-1--1---------------------------|
|--------------------------------------------------------------|
 *       *      . .    .            Part 3
|---------------------------------|----------------------------|
|--------------^------------------|----------------------------|
|----10----10/14--14-12-14-12-10~-|----------------------------|
|-12----12------------------------|----------------------------|
|---------------------------------|0--0--0--0--0--0--0--0--0--0|
|---------------------------------|0--0--0--0--0--0--0--0--0--0|
                                   .  .  .  .  .  .  .  .  .  .
|--------------------------------------------------------------------|
|----------------------------^---------------------------------------|
|--------------------------15---15--15--15--15-14--12--10--12--14-10~|
|--------------------------------------------------------------------|
|--0--0--0--0--0--0-0-0----------------------------------------------|
|--0--0--0--0--0--0-0-0----------------------------------------------|
   .  .  .  .  .  . . .
|--------------------------------------------------------------------|
|--------------------------------------^--^--^-----------------------|
|-15--14--12--10--12--14-10--12-10-12/14~14~14~\0/14/15--15--15--15--|
|--------------------------------------------------------------------|
|--------------------------------------------------------------------|
|--------------------------------------------------------------------|

|---------------------------------------------------------------------|
|---------------------------------------------------------------------|
|15-14--12--10--12--14-10~-15--14--12--10--12--14-9~--9-9-9~-9-9-9~-\0|
|---------------------------------------------------------------------|
|---------------------------------------------------------------------|
|---------------------------------------------------------------------|
                                                          *      *

Play Intro after a second goes by and make the end of the intro longer

Ending
|--------------------------------|
|--------------------------------|
|--------------------------------|
|--------------------------------|
|0--0---0--0---0--0---0--0---0--0|
|0--0---0--0---0--0---0--0---0--0| 3x
 .  .   .  .   .  .   .  .   .  .
Suggest correction
Give kudos to tab author, rate the tab!
1 2 3 4 5
comments
print report bad tab
guest
You may want to rate the tab now too:
select rating
Please do not post tabs as comments. Select "correction" instead!