Oops, an error
Loading. Please wait.

The Glow Of The Flames Tab

version 1
version 1

Whole song

Interactive

1,200 views 1 this week
no commentswrite comment
1 2 3 4 5
please rate
add to favorites
launch autoscroll
font size
0
reset
how to read this tab
guitar tuner
Autoscroll
slow
fast
+/-
esc
set tempo
stop
Help us to improve Ultimate-Guitar.com Take our survey!
×
Author
Difficulty
novice
----------------------------------------------------------------------------
                  The Glow Of The Flames - Poisonblack
----------------------------------------------------------------------------

Tabbed by: Coma_Ami
Email: kuollutkukko@hotmail.com

Tuning: 2 steps down C


Intro:

Guitar1: Ville Laihiala
                                                             Fill 1
|-----------------------------------------------------------|--------------|
|-----------------------------------------------------------|--------------|
|--4-2------------------------------------------------------|--------------|
|-----5-4-----2---2---2---2---5---5---5---5---7---7---7---7-|--4-5-7-5-4-0-|
|-----------2---2---2---2---3---3---3---3---5---5---5---5---|-3------------|
|-----------0-----------------------------------------------|--------------|

Guitar2: Janne Markus

|-----------------------------------------------------------|--------------|
|-----------------------------------------------------------|--------------|
|-----------------------------------------------------------|--------------|
|-----------2-2-2-2-2-2-2-2-5-5-5-5-5-5-5-5-7-7-7-7-7-7-7-7-|-5-5-5-5-5-5-5|
|--2-0------2-2-2-2-2-2-2-2-3-3-3-3-3-3-3-3-5-5-5-5-5-5-5-5-|-3-3-3-3-3-3-3|
|-----3-2---0-0-0-0-0-0-0-0---------------------------------|--------------|

Guitar1: Ville Laihiala
                                                     Fill2
|----------------------------------------------------|--------------------|
|----------------------------------------------------|--------------------|
|----------------------------------------------------|--------------------|
|------2---2---2---2---5---5---5---5---7---7---7---7-|----5-4---5-4-2-4ah-|
|----2---2---2---2---3---3---3---3---5---5---5---5---|--33----33----------|
|----------------------------------------------------|--------------------|
                                                     Pm ..    ..
Guitar2: Janne Markus

|----------------------------------------------------|
|----------------------------------------------------|
|----------------------------------------------------|
|----2-2-2-2-2-2-2-2-5-5-5-5-5-5-5-5-7-7-7-7-7-7-7-7-|
|----2-2-2-2-2-2-2-2-3-3-3-3-3-3-3-3-5-5-5-5-5-5-5-5-|
|----0-0-0-0-0-0-0-0---------------------------------|

Verse:

Guitar1 & 2:
                 "Temptation awaits.."          "As she opens the gates"  
|-----------------------------------------------------------------------|
|-----------------------------------------------------------------------|
|-----------------------------------------------------------------------|
|--0h2-----0h2-------------------------0h2-----0h2----------------------|
|--0h2-0-0-0h2-0-0---------------------0h3-0-0-0h3-0-0------------------|
|--0---0-0-0---0-0---------------------0---0-0-0---0-0------------------|
Pm     . .     . .                         . .     . .
 
            "And I kneel down before her"           
|---------------------------------------|
|---------------------------------------|
|---------------------------------------|
|--0h2-----0h2--------------------------|
|--0h2-0-0-0h2-0-0----------------------|
|--0---0-0-0---0-0----------------------|
Pm     . .     . .                       

  "Down before her"
|-------------------------------------------------------------|
|-------------------------------------------------------------|
|-------------------------------------------------------------|
|---2---4--9----9------9-7--7--7-9--5----5------5-4---4--4-5--|
|---3---5--7----7------7-7--7--7-7--3----3------3-3---3--3-3--|
|-0---0-----0-0--0-0-00---00-00------0-0--0-0-00----00-00-----|
Pm.   .     . .  . . ..   .. ..      . .  . . ..    .. ..

|-----------------------------------|------------------|
|-----------------------------------|------------------|
|-----------------------------------|------------------|
|-9---9------9-7--7--7-9--5----5----|---5-4--5-4-2-4ah-|
|-7---7------7-7--7--7-7--3----3----|-33---33----------|
|--0-0-0-0-00---00-00------0-0--0-0-|------------------|
Pm . . . . ..   .. ..      . .  . .   ..   ..

Chorus:

Guitar1: Ville Laihiala
                                                             Fill 1
|-----------------------------------------------------------|--------------|
|-----------------------------------------------------------|--------------|
|--4-2------------------------------------------------------|--------------|
|-----5-4-----2---2---2---2---5---5---5---5---7---7---7---7-|--4-5-7-5-4-0-|
|-----------2---2---2---2---3---3---3---3---5---5---5---5---|-3------------|
|-----------0-----------------------------------------------|--------------|

Guitar2: Janne Markus

|-----------------------------------------------------------|--------------|
|-----------------------------------------------------------|--------------|
|-----------------------------------------------------------|--------------|
|-----------2-2-2-2-2-2-2-2-5-5-5-5-5-5-5-5-7-7-7-7-7-7-7-7-|-5-5-5-5-5-5-5|
|--2-0------2-2-2-2-2-2-2-2-3-3-3-3-3-3-3-3-5-5-5-5-5-5-5-5-|-3-3-3-3-3-3-3|
|-----3-2---0-0-0-0-0-0-0-0---------------------------------|--------------|

Guitar1: Ville Laihiala
                                                     Fill2
|----------------------------------------------------|--------------------|
|----------------------------------------------------|--------------------|
|----------------------------------------------------|--------------------|
|------2---2---2---2---5---5---5---5---7---7---7---7-|----5-4---5-4-2-4ah-|
|----2---2---2---2---3---3---3---3---5---5---5---5---|--33----33----------|
|----------------------------------------------------|--------------------|
                                                     Pm ..    ..
Guitar2: Janne Markus

|----------------------------------------------------|
|----------------------------------------------------|
|----------------------------------------------------|
|----2-2-2-2-2-2-2-2-5-5-5-5-5-5-5-5-7-7-7-7-7-7-7-7-|
|----2-2-2-2-2-2-2-2-3-3-3-3-3-3-3-3-5-5-5-5-5-5-5-5-|
|----0-0-0-0-0-0-0-0---------------------------------|

Verse2:

Guitar1 & 2:
                 "So pleasure and pain.."         "Now they are the same"  
|-----------------------------------------------------------------------|
|-----------------------------------------------------------------------|
|-----------------------------------------------------------------------|
|--0h2-----0h2-------------------------0h2-----0h2----------------------|
|--0h2-0-0-0h2-0-0---------------------0h3-0-0-0h3-0-0------------------|
|--0---0-0-0---0-0---------------------0---0-0-0---0-0------------------|
Pm     . .     . .                         . .     . .
 
            "For I have fell from grace"           
|---------------------------------------|
|---------------------------------------|
|---------------------------------------|
|--0h2-----0h2--------------------------|
|--0h2-0-0-0h2-0-0----------------------|
|--0---0-0-0---0-0----------------------|
Pm     . .     . .                       

  "Fell from grace..."
|-------------------------------------------------------------|
|-------------------------------------------------------------|
|-------------------------------------------------------------|
|---2---4--9----9------9-7--7--7-9--5----5------5-4---4--4-5--|
|---3---5--7----7------7-7--7--7-7--3----3------3-3---3--3-3--|
|-0---0-----0-0--0-0-00---00-00------0-0--0-0-00----00-00-----|
Pm.   .     . .  . . ..   .. ..      . .  . . ..    .. ..

|-----------------------------------|------------------|
|-----------------------------------|------------------|
|-----------------------------------|------------------|
|-9---9------9-7--7--7-9--5----5----|---5-4--5-4-2-4ah-|
|-7---7------7-7--7--7-7--3----3----|-33---33----------|
|--0-0-0-0-00---00-00------0-0--0-0-|------------------|
Pm . . . . ..   .. ..      . .  . .   ..   ..

Chorus2:

Guitar1: Ville Laihiala
                                                             Fill 1
|-----------------------------------------------------------|--------------|
|-----------------------------------------------------------|--------------|
|--4-2------------------------------------------------------|--------------|
|-----5-4-----2---2---2---2---5---5---5---5---7---7---7---7-|--4-5-7-5-4-0-|
|-----------2---2---2---2---3---3---3---3---5---5---5---5---|-3------------|
|-----------0-----------------------------------------------|--------------|

Guitar2: Janne Markus

|-----------------------------------------------------------|--------------|
|-----------------------------------------------------------|--------------|
|-----------------------------------------------------------|--------------|
|-----------2-2-2-2-2-2-2-2-5-5-5-5-5-5-5-5-7-7-7-7-7-7-7-7-|-5-5-5-5-5-5-5|
|--2-0------2-2-2-2-2-2-2-2-3-3-3-3-3-3-3-3-5-5-5-5-5-5-5-5-|-3-3-3-3-3-3-3|
|-----3-2---0-0-0-0-0-0-0-0---------------------------------|--------------|

Guitar1: Ville Laihiala
                                                     Fill2
|----------------------------------------------------|--------------------|
|----------------------------------------------------|--------------------|
|----------------------------------------------------|--------------------|
|------2---2---2---2---5---5---5---5---7---7---7---7-|----5-4---5-4-2-4ah-|
|----2---2---2---2---3---3---3---3---5---5---5---5---|--33----33----------|
|----------------------------------------------------|--------------------|
                                                     Pm ..    ..
Guitar2: Janne Markus

|----------------------------------------------------|
|----------------------------------------------------|
|----------------------------------------------------|
|----2-2-2-2-2-2-2-2-5-5-5-5-5-5-5-5-7-7-7-7-7-7-7-7-|
|----2-2-2-2-2-2-2-2-3-3-3-3-3-3-3-3-5-5-5-5-5-5-5-5-|
|----0-0-0-0-0-0-0-0---------------------------------|

Chorus3: (Note that now it goes one tone higher)

Guitar1: Ville Laihiala
                                                   Fill3
|--------------------------------------------------|-------------|
|--------------------------------------------------|-------------|
|--------------------7---7---7---7---9---9---9---9-|-------------|
|------------------5---5---5---5---7---7---7---7---|--6-7-9-7-6--|
|---4---4---4---4----------------------------------|-5----------7|
|-2---2---2---2------------------------------------|-------------|

Guitar2: Janne Markus

|--------------------------------------------------|-------------|
|--------------------------------------------------|-------------|
|--------------------------------------------------|-------------|
|-----------------7-7-7-7-7-7-7-7-9-9-9-9-9-9-9-9--|-7-7-7-7-7-7-|
|-4-4-4-4-4-4-4-4-5-5-5-5-5-5-5-5-7-7-7-7-7-7-7-7--|-5-5-5-5-5-5-|
|-2-2-2-2-2-2-2-2----------------------------------|-------------|

Guitar1: Ville Laihiala
                                                   Fill3
|--------------------------------------------------|-------------|
|--------------------------------------------------|-------------|
|--------------------7---7---7---7---9---9---9---9-|-------------|
|------------------5---5---5---5---7---7---7---7---|--6-7-9-7-6--|
|---4---4---4---4----------------------------------|-5----------7|
|-2---2---2---2------------------------------------|-------------|

Guitar2: Janne Markus

|--------------------------------------------------|-------------|
|--------------------------------------------------|-------------|
|--------------------------------------------------|-------------|
|-----------------7-7-7-7-7-7-7-7-9-9-9-9-9-9-9-9--|-7-7-7-7-7-7-|
|-4-4-4-4-4-4-4-4-5-5-5-5-5-5-5-5-7-7-7-7-7-7-7-7--|-5-5-5-5-5-5-|
|-2-2-2-2-2-2-2-2----------------------------------|-------------|

Guitar1: Ville Laihiala
                                                   Fill4
|--------------------------------------------------|--------------------|
|--------------------------------------------------|--------------------|
|--------------------7---7---7---7---9---9---9---9-|--------------------|
|------------------5---5---5---5---7---7---7---7---|---7-6--7-6-5-4-6ah-|
|---4---4---4---4----------------------------------|-55---55------------|
|-2---2---2---2------------------------------------|--------------------|
                                                   Pm..   ..

Guitar2: Janne Markus

|--------------------------------------------------|
|--------------------------------------------------|
|--------------------------------------------------|
|-----------------7-7-7-7-7-7-7-7-9-9-9-9-9-9-9-9--|
|-4-4-4-4-4-4-4-4-5-5-5-5-5-5-5-5-7-7-7-7-7-7-7-7--|
|-2-2-2-2-2-2-2-2----------------------------------|

Outro:

Both Guitars:

|-----------------------------------------------------------------------|
|---------------------------------------------------------------4ah-3ah-|
|--------------------------------------------------------------2---2----|
|-0h2-----0h2--------0h2-----0h2--------0h2-----0h2--------0h2----------|
|-0h2-----0h2--------0h2-----0h2--------0h2-----0h2--------0h2----------|
|-0---0-0-0---0-0-00-0---0-0-0---0-0-00-0---0-0-0---0-0-00-0------------|
Pm    . .     . . ..     . .     . . ..     . .     . . ..     .    . 

|-----------------------------------------------------------------------|
|---------------------------------------------------------------4ah-3ah-|
|--------------------------------------------------------------2---2----|
|-0h2-----0h2--------0h2-----0h2--------0h2-----0h2--------0h2----------|
|-0h2-----0h2--------0h2-----0h2--------0h2-----0h2--------0h2----------|
|-0---0-0-0---0-0-00-0---0-0-0---0-0-00-0---0-0-0---0-0-00-0------------|
Pm    . .     . . ..     . .     . . ..     . .     . . ..     .    . 

www.poisonblack.com

Suggest correction
What's this?
You can suggest a correction to this tab. Community and Mods will review your correction and vote to approve or reject it.
comments
We did not receive enough feedback on this tab! Please rate:
print report bad tab
1 2 3 4 5
guest
You may want to rate the tab now too:
select rating
Please do not post tabs as comments. Select "correction" instead!