Oops, an error
Loading. Please wait.

Ashamed Of The Story I Told tab

by Polaris
2,134 views 1 this week
1 commentread comment
1 2 3 4 5
x 3
add to favorites
×
Save as Personal and add changes to this tab that will be seen only by you. Learn more ›
×
You can save this tab as Personal to edit and correct it or add notes. All changes will be seen only by you. Learn more »
launch autoscroll
font size
0
reset
how to read this tab
guitar tuner
edit
Autoscroll
slow
fast
+/-
esc
set tempo
stop
Polaris-
"Ashamed of the Story I Told"
Music From the Adventures of Pete and Pete




Verse: (I know the measures look weird, listen to the song for timing.)

  D                             A

|-----------|-----------------|-----------|-----------------|

|-----------|-----------------|-----------|-----------------|

|---2---5-5-|---4-4---5-4-2-0-|-----------|-----------------|

|-0---0-----|-0-----0---------|---2---5-5-|---4-4---5-4-2-0-|

|-----------|-----------------|-0---0-----|-0-----0---------|

|-----------|-----------------|-----------|-----------------|

 

During the verse, these three riffs are played by a second guitar. 
Again, listen to the song.

 Riff 1        Riff 2        Riff 3

|----------10-|-------------|-------------|

|-------10----|-------------|-------------|

|----11-------|----11-12----|----11-12-11-|

|-12----------|-12-------12-|-12----------|

|-------------|-------------|-------------|

|-------------|-------------|-------------|

 

Chorus:

  D5       A5       C5       G5

|---------|--------|--------|---------|

|---------|--------|--------|---------|

|-77777777|--------|55555555|---------|

|-77777777|77777777|55555555|55555555-|

|-55555555|77777777|33333333|55555555-|

|---------|55555555|--------|33333333-|

 

Bridge:

 F        C        F        C

|1-------|0-------|1-------|0-------|

|1-------|1-------|1-------|1-------|

|2-------|0-------|2-------|0-------|

|3-------|2-------|3-------|2-------|

|3-------|3-------|3-------|3-------|

|1-------|--------|1-------|--------|

|                                   |

|                                   |

|--------|--------|--------|--------|

|--------|--------|--------|--------|

|--------|--------|--------|--------|

|--------|--------|--------|--------|

|----0h2-|3-------|----0h2-|3-------|

|1-------|--3-2-0-|1-------|--3-2-0-|  x2

 

Thereâ^À^Ùs a riff in the song that the bass plays by itself:

|--------|---------|---------|---------|

|--------|---------|---------|---------|

|--------|---------|---------|---------|

|--------|---------|---------|---------|

|-2--2-0-|0--------|--0--0-2-|2-0--0-2-|

|--------|--2--2-0-|0--------|---------|

            
            
Suggest correction
Creating personal tab
Creating personal tab
You can edit any tab online and save it as your Personal.

You can edit, replace or remove any tab part or add personal notes – all changes will be seen only by you.

Personal tabs can be accessed anytime from any device, even offline.
Learn more »
Give kudos to tab author, rate the tab!
1 2 3 4 5
comments
print report bad tab
1 comment total.
0 reply
givicencio 364 May 13, 2015 04:25 PM

I think that this part:

|----0h2-|3-------|----0h2-|3-------|
|1-------|--3-2-0-|1-------|--3-2-0-| x2


Is more like this:

|----0h2p0--3-------------|
|-0h1----------3-3-1-0-1--| x4


(not sure though)

guest
Wanna post a correction for this tab? Suggest correction