Oops, an error
Loading. Please wait.

Everywhere Tab

version 1
version 1

Intro

1,553 views 3 this week
2 commentsread comments
1 2 3 4 5
x 3
add to favorites
launch autoscroll
font size
0
reset
how to read this tab
guitar tuner
Autoscroll
slow
fast
+/-
esc
set tempo
stop
Help us to improve Ultimate-Guitar.com Take our survey!
×
Author
"Everywhere" by Polaris...
***well it's pretty close to correct***
tunning: E
notes: G D C E F#
chords: none

*figure out the rhythm on your own*

E---------------------------------------------------------|
B--3-3------1--1---3--1--0-----0-0-3---1-3-3-5-5-7-7-8-8--|
G-0-0----0-0--0--0--0--0--0---0-0-0-0-0-0-0-0-0-0-0-0-0-0-|
D---------------------------------------------------------|
A---------------------------------------------------------|
E---------------------------------------------------------|

*also more fill notes may be needed*
Suggest correction
Give kudos to tab author, rate the tab!
1 2 3 4 5
comments
print report bad tab
2 comments total.
0 reply
s-fury 120 Nov 14, 2006 01:34 PM

i think its a little off:
------------------------------------------
-3-3----1--3-1-0----3--3-1----3-5-7-8-----
0-0--0-0--0-0-0--0-0--0-0--0-0-0-0-0------
------------------------------------------
------------------------------------------
------------------------------------------

-----------------------------------------------
-1-3--3-1--1-3-1-0----1-3--3-1---3-3-5-5-7-7-8-
0-0--0-0--0-0-0-0----0-0--0-0---0---0---0------
-----------------------------------------------
-----------------------------------------------
-----------------------------------------------

0 reply
s-fury 120 Nov 14, 2006 02:03 PM

sorry: on 2nd line its --0-3- where i have --1-3- (3 times)
-0-0-- -0-0--

guest
You may want to rate the tab now too:
select rating
Wanna post a correction for this tab? Suggest correction