Oops, an error
Loading. Please wait.

Hey Sandy Tab

version 1
version 1

Whole song

Interactive

14,207 views 21 this week
2 commentsread comments
1 2 3 4 5
accurate
x 15
add to favorites
launch autoscroll
font size
0
reset
how to read this tab
guitar tuner
Tab Pro tools
  • play this tab
  • loop segment
  • change instrument
  • show fretboard
  • metronome
×
Best way to learn
"Hey Sandy"
Autoscroll
slow
fast
+/-
esc
set tempo
stop
Contributor
-------------------------------------------------------------------------------
                             Hey Sandy - Polaris
-------------------------------------------------------------------------------
Tabbed by: John (Vandalx21)
Email:Vandalx21@aol.com


This Tab is 100% correct, i'm sure of it, i've rewritten it several times and
have played this song with my band live and the people went nuts for it.

Tuning: Standard


Intro:

D A E E A 


A          D   F# E A           D    F#    E 
Hey Smilin Strange, You lookin' Happily deranged
A                 D         F#   E
Can you settle to shoot me? (Lost lyric)
   A        D           F#     E
Or Have you picked your target yet?


Chorus:
           D  A  E   A
Hey sandy [Ay ay ay]
                     D  E  A          A
Don't you talk back [ay ay ay] Hey Sandy

Verse 2:
A            D   F#  E
 Four Feet away,
A      D             F#         E
End of Speech is the end of the day
A            D      F#    E
we was only funnin'
    A     D                F#      E
But guiltily I thought you had it comin'

Chorus:

Bridge:
(softly)
e|-2--2---0-0--0-0-0-0--2-5--0-0--0-0--0-0-|
B|-3--3---2-2--0-0-2-2--3-3--2-2--0-0--2-2-|
G|-2--2---2-2--1-1-2-2--2-2--2-2--1-1--2-2-|
D|-0--0---2-2--2-2-2-2--0-0--2-2--2-2--2-2-|
A|--------0-0--2-2-0-0-------0-0--2-2--0-0-|
E|-------------0-0----------------0-0------|


D A E  A

Solo:
the notes are correct just toy around with the rythms to get it right

e|-12-10-9---5-5-5-5-4-4----12-10-9--5-5-5-5-4------12-10-9--5-5-5-5-4/10-10-9-|
B|-----------------------7-----------------------9\7---------------------------|
G|-----------------------------------------------------------------------------|
D|-----------------------------------------------------------------------------|
A|-----------------------------------------------------------------------------|
E|-----------------------------------------------------------------------------|

e|-5-5-5-5-4-4--------4-|
B|-5-5-5-5-4-4--7-7-7---|
G|----------------------|
D|----------------------|
A|----------------------|
E|----------------------|
D  A  E      A
Ay Ay ay Hey Sandy                           < Repeat about 4x
                     D  A  E          A    
Don't you talk back [Ay ay ay] Hey Sandy  
(play D chord after the 4 loop of this riff)
Ending:

e|-2---2-4/5--4-2-0---0/2-0--------2---2-4/5--5/7-5-4-5-4-2-4-2-0/2---2-7\5--10-
B|--------------------------3-2-------------------------------------------------
G|------------------------------4-----------------------------------------------
D|------------------------------------------------------------------------------
A|------------------------------------------------------------------------------
E|------------------------------------------------------------------------------

e|-9-10-9-7-2/5--5/7\5-5-4-2-4-5-4-2-4-5-|
B|---------------------------------------|
G|---------------------------------------|
D|---------------------------------------|
A|---------------------------------------|
E|---------------------------------------|

| /  slide up
| \  slide down
| h  hammer-on
| p  pull-off
| ~  vibrato
| +  harmonic
| x  Mute note
comments
print report bad tab
2 comments total.
+1 reply
SLASH4PRES wrote on January 23 2005, 12:00 am

the solo is
e|12-10-9---------------------
B|---------10-10-10-10-9-9-9-7

0 reply
nativepangea wrote on January 6 2014, 12:25 am

Great work, You have earned 1000 Krebstar points!

I want to post or [tab]
guest
You may want to rate the tab now too:
select rating
Please do not post tabs as comments. Select "correction" instead!