Oops, an error
Loading. Please wait.

Libertad tab

25 views 1 this week
no commentswrite comment
1 2 3 4 5
3 more votes to show rating
add to favorites
×
Save as Personal and add changes to this tab that will be seen only by you. Learn more ›
×
You can save this tab as Personal to edit and correct it or add notes. All changes will be seen only by you. Learn more »
launch autoscroll
font size
0
reset
how to read this tab
guitar tuner
edit
Autoscroll
slow
fast
+/-
esc
set tempo
stop
INTRO:
E|---------------------------------------------------------------------|
B|---------------------------------------------------------------------|
G|---------------------------------------------------------------------|
D|---9---9---9---9----------------------6---6---6---6------------------|
A|-7---7---7---7------9---9---9---9---4---4---4---4------7---7---7---7-|
E|------------------7---7---7---7----------------------5---5---5---5---|

E|--------------------------------------|
B|--------------------------------------|
G|--------------------------------------|
D|-99999999----------66666666-----------|
A|-77777777-99999999-44444444-77777777--|
E|----------77777777----------55555555--|

E5                           B5
Ponte las botas con punteras coge un garrote o una
       C#5
piedra derrota el gobierno capitalista
A5
sal a las calles y grita por tu vida


E5
Libertad, je je je je
B5
Libertad, oy oy oy
C#5                         A5
Libertad, lucha por tu libertad


E5
Libertad, je je je je
B5
Libertad, oy oy oy
C#5                         A5
Libertad, lucha por tu libertad

E|--------------------------------------|
B|--------------------------------------|
G|--------------------------------------|
D|-99999999----------66666666-----------|
A|-77777777-99999999-44444444-77777777--|
E|----------77777777----------55555555--|

E5
Si eres de derecha o de izquierda
B5
un obrero de clase media,
C#5
blanco negro o amarillo
A5
nada importa juntos aquí vivimos

E5
Unidos para luchar
B5
unidos por un ideal
C#5
unidos para alcanzar la libertad


E5
Libertad, je je je je
B5
Libertad, oy oy oy
C#5                         A5
Libertad, lucha por tu libertad


E|--------------------------------------|
B|--------------------------------------|
G|--------------------------------------|X2
D|-99999999----------66666666-----------|
A|-77777777-99999999-44444444-77777777--|
E|----------77777777----------55555555--|

E|---------------|
B|---------------|
G|---------------|
D|-----------9---|
A|-9-777-999-7---|
E|-7-555-777-----|


ACORDES:
E|---------------------|
B|---------------------|
G|---------------------|
D|--9---------6--------|
A|--7----9----4----7---|
E|-------7---------5---|
    E5   B5  C#5   A5

            
            
Suggest correction
Creating personal tab
Creating personal tab
You can edit any tab online and save it as your Personal.

You can edit, replace or remove any tab part or add personal notes – all changes will be seen only by you.

Personal tabs can be accessed anytime from any device, even offline.
Learn more »
Give kudos to tab author, rate the tab!
1 2 3 4 5
comments
print report bad tab
guest
Wanna post a correction for this tab? Suggest correction