Oops, an error
Loading. Please wait.

Its Your Last Shot Tab

506 views 3 this week
no commentswrite comment
1 2 3 4 5
please rate
add to favorites
launch autoscroll
font size
0
reset
how to read this tab
guitar tuner
Autoscroll
slow
fast
+/-
esc
set tempo
stop
Help us to improve Ultimate-Guitar.com Take our survey!
×
Author
Difficulty
advanced
One of my new favs and this song is on youtube and there is one video with a download 
link and it won't give you a virus b/c i already used it :). This is It's Your Last Shot 
by Politics and Assassins.
http://www.youtube.com/watch?v=Gpe2qm8xWxo

Intro x8
eb|--------------------------|
Bb|------------7-------------|
Gb|------7---7---------------|
Db|-0--0---0-----------------|
Ab|--------------------------|
Db|--------------------------|

Verse Part A x2
|---------------------------------------------------------|
|---------------------------------------------------------|
|------5555-77----------88-----5555-77--------------------|
|-0-0--5555-77-0-0-5555-66-0-0-5555-77-6-6-5-5------------|
|-0-0--3333-55-0-0-3333----0-0-3555-55-6-6-5-5------------|
|-0-0----------0-0---------0-0---------6-6-5-5------------|

Verse Part B x2
|---------------------------------------|-----------------------|
|---------------------------------------|-----------------------|
|---------------------------------------|-----5555-77--------88-|
|-00----------------88888888-3333-6666--|-0-0-5555-77-0-0-55-66-|
|-00----------------88888888-3333-6666--|-0-0-3333-55-0-0-33----|
|-00----------------88888888-3333-6666--|-0-0---------0-0-------|

Pre Chorus
|-----------------------|
|-----------------------|
|-55555555--------------|
|-55555555-55555555-----|
|-33333333-55555555-----|
|----------55555555-----|

Chorus
|---------------------------------------------------------|
|---------------------------------------------------------|
|-777777777777777777--------------------------------------|
|-777777777777777777-33333333-55555555--------------------|
|-555555555555555555-33333333-55555555--------------------|
|--------------------33333333-55555555--------------------|

Verse Part A

Verse Part B (Don’t do second half)

Pre Chorus

Chorus x2

Bridge
|---------------------------------------------------------|
|---------------------------------------------------------|
|---------------------------------------------------------|
|-11111111-33333333-88888888-55555555-11111111-3333-6666--|
|-11111111-33333333-88888888-55555555-11111111-3333-6666--|
|-11111111-33333333-88888888-55555555-11111111-3333-6666--|

Intro x8

Chorus x3


|---------------------------------------------------------|
|---------------------------------------------------------|
|-777777777777777777--------------------------------------|
|-777777777777777777-33333333-555555555555----------------|
|-555555555555555555-33333333-555555555555----------------|
|--------------------33333333-555555555555----------------|

|------------------------------------|
|------------------------------------|
|-----5555-77--------88-----5555-7---|
|-0-0-5555-77-0-0-55-66-0-0-5555-7---|
|-0-0-3333-55-0-0-33----0-0-3333-5---|
|-0-0---------0-0-------0-0----------|
Suggest correction
Give kudos to tab author, rate the tab!
1 2 3 4 5
comments
print report bad tab
guest
You may want to rate the tab now too:
select rating
Please do not post tabs as comments. Select "correction" instead!