Oops, an error
Loading. Please wait.

Fast Canoe Tab

version 1
version 1

Whole song

2,493 views 3 this week
no commentswrite comment
1 2 3 4 5
poor
x 2
add to favorites
launch autoscroll
font size
0
reset
how to read this tab
guitar tuner
Tab Pro tools
  • play this tab
  • loop segment
  • change instrument
  • show fretboard
  • metronome
Autoscroll
slow
fast
+/-
esc
set tempo
stop
Contributor
artist: polvo
song: fast canoe
tuning: E B A G A F
tabbed by: batesyy

tuning help:

E - bottom e stays the same
B - tune a up to b
A - tune d down to a
G - g stays the same
A - tune b down to a
F - tune top e up to f*

*can keep as e as it is not used, 
it's just the tuning used by polvo.

*!*structure probably won't be accurate.*!*

/song

F|--------------------------------------|
A|--------------17----------------------|
G|-18--16------------------7----9b10-7--|
A|---------/19-----------7---7----------|
B|--------------------------------------|
E|--------------------------------------|

|-------------------------------------------------|
|-------------------------------------------------|
|-------------------------------------------------|
|----5--9--5------5--7--5------5--9--5------5--7--|
|-2--3--7--3---2--3--5--3---2--3--7--3---2--3--5--|
|-2------------2------------2------------2--------|

|------------------------------|
|------------------------------|
|-----------------7---9b10-7---|
|-10/9---4/5----7---7----------|
|-8--7---2/3-------------------|
|------------------------------|

|--------------------------------------|
|--------------17----------------------|
|-18--16------------------7----9b10-7--|
|---------/19-----------7---7----------|
|--------------------------------------|
|--------------------------------------|

|-----------------------------------------------|
|-----------------------------------------------|
|-----------------------------------------------|
|------5--9--5-------5--7--10---10/9-10/9-10/9--|
|-0-2--3--7--3--0-2--3--5--8----8-/7-8-/7-8-/7--|
|-0-2-----------0-2-----------------------------|


|--------------|
|--------------|
|--------------|
|--------------|
|-0-2-0-2-0-2--|
|-0-2-0-2-0-2--|

|-------------------------------------------|
|-------------------------------------------|
|-------------------------------------------|
|------5--9--5-------5--7---10/9-10/9-10/9--|
|-0-2--3--7--3--0-2--3--5---8-/7-8-/7-8-/7--|
|-0-2-----------0-2-------------------------|

|------------------------------------|
|------------------------------------|
|-12--11--12--11--12-11-12-11-12b13--|
|------------------------------------|
|------------------------------------|
|------------------------------------|

|--------|
|--------|
|--------|
|--------|
|-3-3-3--|
|-3-3-3--|

|------------------------------|
|------------------------------|
|-----------------7---9b10-7---|
|-10/9---4/5----7---7----------|
|-8--7---2/3-------------------|
|------------------------------|

|--------------------------------------|
|--------------17----------------------|
|-18--16------------------7----9b10-7--|
|---------/19-----------7---7----------|
|--------------------------------------|
|--------------------------------------|

|-----------------------------------------------|
|-----------------------------------------------|
|-----------------------------------------------|
|------5--9--5-------5--7--10---10/9-10/9-10/9--|
|-0-2--3--7--3--0-2--3--5--8----8-/7-8-/7-8-/7--|
|-0-2-----------0-2-----------------------------|

|-------------------------------------------|
|-------------------------------------------|
|-------------------------------------------|
|------5--9--5-------5--7---10/9-10/9-10/9--|
|-0-2--3--7--3--0-2--3--5---8-/7-8-/7-8-/7--|
|-0-2-----------0-2-------------------------|

|------------------------------------|
|------------------------------------|
|-12--11--12--11--12-11-12-11-12b13--|  improvise on
|------------------------------------|   this
|------------------------------------|
|------------------------------------|

|--------|
|--------|
|--------|
|--------|
|-3-3-3--|
|-3-3-3--|

|-----------------------------------------------|
|-----------------------------------------------|
|-----------------------------------------------|
|------5--9--5-------5--7--10---10/9-10/9-10/9--|
|-0-2--3--7--3--0-2--3--5--8----8-/7-8-/7-8-/7--|
|-0-2-----------0-2-----------------------------|

|--------------|
|--------------|
|--------------|
|--------------|
|-0-2-0-2-0-2--|
|-0-2-0-2-0-2--|

|---------------|
|----12----12---|
|-12----12----12| etc
|---------------|
|---------------|
|---------------|


comments
We did not receive enough feedback on this tab! Please rate:
print report bad tab
1 2 3 4 5
I want to post or [tab]
guest
You may want to rate the tab now too:
select rating
Please do not post tabs as comments. Select "correction" instead!