Oops, an error
Loading. Please wait.

Time Isnt On My Side Tab

by Polvo
1,242 views 6 this week
no commentswrite comment
1 2 3 4 5
3 more votes to show rating
add to favorites
launch autoscroll
font size
0
reset
how to read this tab
guitar tuner
Autoscroll
slow
fast
+/-
esc
set tempo
stop
Author
This tab existed on an old Polvo tab site. I'm going to try to put all of them up
since Polvo tabs are pretty hard to come by.

---------------------------------------------------------------------------

tuning: DAAGDD

intro:
                                                  wild whammy stuff...
D----21--21---21---21--21----21----19---19---19----19---19---19---19---|
D----21--21---21---21--21----21----19---19---19----19---19---19---19---|
G----21--21---21---21--21----21----19---19---19----19---19---19---19---|
A----------------------------------------------------------------------|
A----------------------------------------------------------------------|
D----------------------------------------------------------------------|

intro cont:
D---17--17---17--17---17---17------16------16----16---------|
D---17--17---17--17---17---17------16------16----16---------|
G---19--19---19--19---19---19----------19-----19-----19-----|
A-----------------------------------------------------------|
A-----------------------------------------------------------|
D-----------------------------------------------------------|

play that twice, then on to the verse....

D---------------------------------------------------------------------|
D-----------------0-----------------------------0---------------------|
G---------6-----------6-------6----------6-----------6----------------|
A-------------0-----------0------------------7-----------7------------|
A----/5----------------------------0--------------------------0-------|
D---------------------------------------------------------------------|

verse cont:

D----------------------------------------------------------------|
D----------------------------------------------------------------|
G---/7---7---7----7----7---7---7----/11---11--/9----9--/7---7----|
A----------------------------------------------------------------|
A---/5---5---5----5----7---5---7-----/9----9--/7----7--/5---5----|
D----------------------------------------------------------------|
play that part 4 times, then go to this...

D----------------------------------------------------------------------------------------|
D----------------------------------------------------------------------------------------|
G---16---7/11---11---9--9\7--7---4--4--4--4--4--4--4--4---7/11-11-9--9\7--7-------16-----|
A---14-----------------------------4--4--4--4--4--4--4--4---------------------------14---|
A----0---5/-9----9---7--7\5--5---4--4--4--4--4--4--4--4---5/9--9--7--7\5--5---0----------|
D----------------------------------------------------------------------------------------|

cont:
D-----------------------------------------------------------|
D-----------------------------------------------------------|
G--7/11--11--9---9\7---7-----4------------------------------|strum this chord a bunch
A-----------------------------4-----------------------------|
A--5/9---9---7---7\5---5-----4------------------------------|
D-----------------------------------------------------------|

then, play these chords:

D---------------------|
D---------------------|
G----------------6----|
A-----5----------4----|
A-----5----------4----|
D-----5----------4----|

then, play this little riff:
                                                    trill
D----------------------------------------------------------------------|
D---9----13---13---11---11----14--14---13--13---9---9(9h8)----8--9--8--|
G----------------------------------------------------------------------|
A----------------------------------------------------------------------|
A----------------------------------------------------------------------|
D----------------------------------------------------------------------|
Suggest correction
Give kudos to tab author, rate the tab!
1 2 3 4 5
comments
print report bad tab
guest
You may want to rate the tab now too:
select rating
Wanna post a correction for this tab? Suggest correction