Oops, an error
Loading. Please wait.

El Ojo En El Ladrillo tab

26 views 1 this week
no commentswrite comment
1 2 3 4 5
3 more votes to show rating
add to favorites
×
Save as Personal and add changes to this tab that will be seen only by you. Learn more ›
×
You can save this tab as Personal to edit and correct it or add notes. All changes will be seen only by you. Learn more »
launch autoscroll
font size
0
reset
how to read this tab
guitar tuner
edit
Autoscroll
slow
fast
+/-
esc
set tempo
stop
[INTRO] -> C D G   C D G


C                       D
Tengo el ojo en el ladrillo,
         G
estoy recopilando estrellas,
C                    D
con un papel y un cepillo,
               G
me he hecho un barco de ala esbelta,
              Em                  C
se escapa del nido, me llevan los sueños,
                D
me arranca prisión.


[ESTRIBILLO]

C                   D
Los gritos de la tortura
         G
están colmando acequias,
C                 D
linternas de batallones,
            Em
se agrandan por un pasillo
                      C
que me duele en todas partes
D                    G
no sé andar por este filo.


[PUENTE 1] (Lo he arreglado para tocarlo con una guitarra,
los acordes que aparecen los podéis rasgar mientras)

              C     D               G               C     D       G

--------------------2-------------------------------------2---3-2-3------
--------------1-----3-------------------------------1-----3-------0------
-0-2-2s4-2-0--0-----2---0-2-0h2p0---0----0-0-0-2-4--0-----2-------0------
--------------2-----0---------------0---------------2-----0--------------
--------------3---------------------2---------------3--------------------
------------------------------------3-----------------------------3------


Me arañan 100.000 navajas,
me cala profunda la despedida,
el horror va de puntillas,
se antoja macabra la suerte,
se escapa del nido, me sueña la muerte,
me agarra prisión.


[ESTRIBILLO]

Los gritos de la tortura
están colmando acequias,
linternas de batallones,
se agrandan por un pasillo
que me duele en todas partes
no sé andar por este filo.


[PUENTE 2] (Ídem que el 1)

              C     D               G                 C     D            G

--------------------2---------------------------------------2------------3-
--------------1-----3---------------------------------1-----3------------0-
-0-2-2s4-2-0--0-----2---0-2-0h2p0---0----0-2-2s4-2-0--0-----2---0-2-2s4--0-
--------------2-----0---------------0-----------------2-----0--------------
--------------3---------------------2-----------------3--------------------
------------------------------------3------------------------------------3-


            C     D     Em           C     D     G

------------0-----2-----0-----3-2-0--0-----2---3-3--------
------------1-----3-----0------------1-----3-----3--------
-4-4-4-2-4--0-----2-----0------------0-----2-----0--------
------------------0------------------------0--------------
------------3-----------2------------3--------------------
-------------------------------------------------3--------


[ESTRIBILLO]

Los gritos de la tortura
están colmando acequias,
linternas de batallones,
se agrandan por un pasillo
que me duele en todas partes
no sé andar por este filo.


C                    D
Los dientes de una ballesta
           Em
me están clavando el vuelo.
C                    D
Los dientes de una ballesta
           G
me están clavando el vuelo.


[Termina como la intro -> C D G  hasta que acaba]

            
            
Suggest correction
Creating personal tab
Creating personal tab
You can edit any tab online and save it as your Personal.

You can edit, replace or remove any tab part or add personal notes – all changes will be seen only by you.

Personal tabs can be accessed anytime from any device, even offline.
Learn more »
Give kudos to tab author, rate the tab!
1 2 3 4 5
comments
print report bad tab
guest
Wanna post a correction for this tab? Suggest correction