Oops, an error
Loading. Please wait.

Una Historia Con Las Manos tab

299 views 1 this week
no commentswrite comment
1 2 3 4 5
3 more votes to show rating
add to favorites
×
Save as Personal and add changes to this tab that will be seen only by you. Learn more ›
×
You can save this tab as Personal to edit and correct it or add notes. All changes will be seen only by you. Learn more »
launch autoscroll
font size
0
reset
how to read this tab
guitar tuner
edit
Autoscroll
slow
fast
+/-
esc
set tempo
stop
Aquí os pongo un gran temazo, y creo que así esta de puta madre

Intro: LA# REm DO FA

--6---6---5---5---3----3-----5-----5-----
----6---6---6---6----6----6----6------6--
-----------------------------------------
-----------------------------------------
-----------------------------------------
-----------------------------------------

ESTROFA

      LA#             REm         DO              FA
No me mires cuando mire, sin mirarte entre los poros,

de tu piel de terciopelo, de la curva de tus fauces,

mírame cuando repose en el cajón de mis raíces,

que elegí el papel de mártir por morirme por un beso,

por el camino maltrecho de la vida y sus compases,

ESTRIBILLO

    LA# REm DO FA
Déjame,
        LA# REm DO FA
que te cuente,
       LA#           REm           DO         FA
una historia con las manos que te sepa a caramelo,

que me estrelle con tu boca, que eyacule en tu barriga,

que me siembre en tu agujero, que te grite como un cerdo.

LA#  REm DO FA

--6---6---5---5---3----3----5----5--------
----6---6---6---6---6----6-----6----6-----
-----------------------------------------
-----------------------------------------
-----------------------------------------
-----------------------------------------

Los acordes se repiten


Y el escondite del día será un sueño duradero,
entre sábanas de hojaldre donde dimita mi cuerpo,
que estoy resudando a chorros, me estoy poniendo blandito,
se me olvidan los demonios cada vez que estoy contigo,
que me sabe a libertad, callarme entre tanto ruido.

Déjame, que te cuente, una historia con las manos
que te sepa a caramelo,
que me estrelle con tu boca, que eyacule en tu barriga,
que me siembre en tu agujero, que te grite como un cerdo.

LA# REm DO FA ( A LA VEZ KE SE REPITE EL PUNTEILLO DEL PRINCIPIO)

Ahora el solo
-----------------------------------------------------------------
-11-10-9/10--------10--11-10-----11-10-9/10--------13-11-10---11-
------------10--12------------12------------10--12----------12---
-----------------------------------------------------------------
-----------------------------------------------------------------
-----------------------------------------------------------------


--------------------------------
-13-15-13-11-10-----------------
----------------12-10-9-10-9-10-
--------------------------------
--------------------------------
--------------------------------

--------------------------------------------
-------10-11-10----10--------10-11-13-11-10-
-10-12----------12-----10-12----------------
--------------------------------------------
--------------------------------------------
--------------------------------------------

PARA LA SIGUIENTE ESTROFA:

    LA# REm DO FA ( en pal mute )
LA X INDICA PAL MUTE
 pues así con todos lso acordes en kintas


                -------------------------
  EJEMPLO       -------------------------
   LA#          -------------------------
                -------------8-----------
   ---->        -------------------------
                ----x6---x6--------------


Déjame,

que te cuente


  Y AKI VUELVE A LOS AKORDES CON DSITORSION

  LA#                  REm
Arranca que tengo tierra en los bolsillos,
   DO                  FA
y agüita pa hacerte un castillo de fango,
  LA#                  REm
debajo de un puente que tengo los dientes,
    DO                   FA
pa darte un mordisco cuando te despiertes,
     LA#                   REm      DO   FA
qué importa si es de noche ya. (bis)


Alguna duda, insulto, alago o corrección a mi correo, gracias

mariokiks_s@


Un saludo, mario
Suggest correction
Creating personal tab
Creating personal tab
You can edit any tab online and save it as your Personal.

You can edit, replace or remove any tab part or add personal notes – all changes will be seen only by you.

Personal tabs can be accessed anytime from any device, even offline.
Learn more »
Give kudos to tab author, rate the tab!
1 2 3 4 5
comments
print report bad tab
guest
Wanna post a correction for this tab? Suggest correction