Oops, an error
Loading. Please wait.

Giant Tortoise bass

by Pond
3,017 views 3 this week
2 commentsread comments
1 2 3 4 5
x 6
add to favorites
×
Save as Personal and add changes to this tab that will be seen only by you. Learn more ›
×
You can save this tab as Personal to edit and correct it or add notes. All changes will be seen only by you. Learn more »
launch autoscroll
font size
0
reset
guitar tuner
edit
Autoscroll
slow
fast
+/-
esc
set tempo
stop
Author
Difficulty
G||-------------------------------------------------------------|
D||-------------------------------------------------------------|
A||-------------------------------------------------------------|
E||--121212121212101212121010121212101212101212--77777--99999---|


G||-------------------------------------7---------9--|
D||--------------------------------------------------|
A||----------------------------77-99-33--77-99-77----|
E||--121210121212121012101012------------------------|


G||-----------------------------------------------------|
D||-----------------------------------------------------|
A||-----------------------------------------------------|
E||--555-7777-9999-121212-12-9-7h9-121212-12-9-7h9------|

G||--------------------------------------|
D||--------------------------------------|
A||--------------------------------------|
E||-121212-12-9-7h9-121212-12-9-7h9------|X5


G||-------------------------------------------------------------|
D||-------------------------------------------------------------|
A||-------------------------------------------------------------|
E||--121212121212101212121010121212101212101212--77777--99999---|

G||-------------------------------------7---------9--------9-|
D||----------------------------------------------------------|
A||----------------------------77-99-33--77-99-77--77-99-77--|
E||--121210121212121012101012--------------------------------|

G||-----------------------------------------------------|
D||-----------------------------------------------------|
A||-----------------------------------------------------|
E||--555-7777-9999-121212-12-9-7h9-121212-12-9-7h9------|

G||--------------------------------------|
D||--------------------------------------|
A||--------------------------------------|
E||-121212-12-9-7h9-121212-12-9-7h9------|X5

G||------------------------------------------------|
D||------------------------------------------------|
A||------------------------------------------------|
E||--121212121212101212121010121212101212101212----|


G||--------------------------------------|
D||--------------------------------------|
A||--------------------------------------|
E||-121212-12-9-7h9-121212-12-9-7h9------|X3


G||------------------------------------------------|
D||------------------------------------------------|
A||------------------------------------------------|
E||--121212121212101212121010121212101212101212----|



BY YONATHANGARFIAS
@YONATHANGARFIAS                

            
            
Suggest correction
Creating personal tab
Creating personal tab
You can edit any tab online and save it as your Personal.

You can edit, replace or remove any tab part or add personal notes – all changes will be seen only by you.

Personal tabs can be accessed anytime from any device, even offline.
Learn more »
comments
print report bad tab
2 comments total.
0 reply
nxaca 10 Aug 01, 2013 11:37 AM

great tab!!!

+3 reply
dannyburke666 10 May 24, 2015 08:11 AM

impossible to work out what's going on

guest
You may want to rate the tab now too:
select rating
Wanna post a correction for this tab? Suggest correction