Oops, an error
Loading. Please wait.

Man It Feels Like Space Again chords

by Pond
2,603 views 9 this week
5 commentsread comments
1 2 3 4 5
x 7
add to favorites
×
Save as Personal and add changes to this tab that will be seen only by you. Learn more ›
×
You can save this tab as Personal to edit and correct it or add notes. All changes will be seen only by you. Learn more »
launch autoscroll
font size
0
reset
transpose
0
reset
simplify chords
display chords
guitar tuner
edit
Autoscroll
slow
fast
+/-
esc
set tempo
stop
Author
Strumming
There is no strumming pattern for this song yet. and get +5 IQ
Man It Feels Like Space Again
Pond
from the album Man It Feels Like Space Again (2015)
Tabbed by Tiagoon


This tab is a version of the song for ACOUSTIC guitar. That is, I tabbed the chords as
low in the neck as it was physically and musically possible. Of course it isn't EXACTLY
the way they play it, but the chords are the same. I made it so it could be easy to play
and sing along. If you want the exact version, check the "tab" version of the song in
UltimateGuitar I made and checked with the live versions. Cheers


Standard tuning - EADGBe


Dm7    xx0211
G6     320000
Cmaj7  x32000
Fmaj7  103210/xx3210
Am7    x02010
E6     xx2424
Edim7  xx2323
D      xx0232
Bdim7  x20101
Bm     x24432
F#m    244222
Em     022000
G      320033/355433
Am     x02210
C      x32010
C#     x46664
G#m7   464444
A      577655/x02220
F#     244322
F#5    244xxx
F5     133xxx
A5     577xxx
B5     799xxx
F#maj7 243322
B      799877/x24442
F      xx3211
C#m    x46654
G#m    466444


Dm7                  G6     Cmaj7       Fmaj7     Am7  Fmaj7 Am7 Dm7
  We can talk by the river, we can walk right out to   the---e   sea
                      G6     E6                Edim7             D      Bdim7
I haven't talked much lately, maybe that's why you never talk to me, ah-ah


Bm        F#m  Bm        D        Em       Bm      Em
So you're at a low, your speeding heart is getting slow
    D    G        D         G         D        G         Bm      Am
The music fades before your mind, you hold the hand, and whisper man

G       D         G                 Bm      Em        Bm  Em
Man, it feels like space again, you saw her face man, she cries
    G     Am      Em      Am        G        C
The river Styx is getting wide, the Brooklyn waves, the rolling ways

And Jesus says, they both say


Dm7                  G6     Cmaj7       Fmaj7     Am7  Fmaj7 Am7 Dm7
  We can talk by the river, we can walk right out to   the---e   sea
                      G6     E6                Edim7             D      Bdim7
I haven't talked much lately, maybe that's why you never talk to me, ah-ah


C# G#m7 C# G#m7 G A G A (4x)

F# F#maj7 A (4x)

and

B|--7-------9--7--6--4--2--4--5--4--2--0--2----------|

-- The next part is kind of played over the same F#/F#maj7 and A chords, with no chords.
So it
would be:

e|-----------------|-----------------|-----------------|-----------------|
B|-----------------|-----------------|-----------------|-----------------|
G|-----------------|-----------------|-----------------|-----------------|
D|---------4-------|---3-----3-------|---------7-------|---7-----7-------|  (the x are marking
A|-----------------|-----------------|-----------------|-----------------|      the tempo)
E|-2-x-x-2---x-x-2-|-1---x-1---x-x-4-|-5-x-x-5---x-x-5-|-5---x-5---5-7-\-|


F#5 F5 A5 B5 (8x)

F# F#maj7 A B (8x)


Dm7                  G      C           F         C    F     C   Dm7
  We can talk by the river, we can walk right out to   the---e   sea
                      G      E6                Edim7             D      Bdim7
I haven't talked much lately, maybe that's why you never talk to me, ah-ah


e|----------------------|----------------------|----------------------------|---------17-19--21---20-|
B|----------------------|--------------------6-|-7--9--10-12--14--15--16-18-|-19--21-----------------|
G|----------------------|---------4--6--7--8---|----------------------------|------------------------|
D|--------------------3-|-4--6--7--------------|----------------------------|------------------------|
A|---------2--4--5--6---|----------------------|----------------------------|------------------------|
E|-2--4--5--------------|----------------------|----------------------------|------------------------|


Bm F#m C#m G#m (3x)

Bm F#m C#m

G#m                            Bm                        F#m     C#m
   It took him all his life to know (it took him all his life to know)
G#m                            Bm                        F#m     C#m      G#m
   It took him all his life to know (it took him all his life to know, to know)
                               Bm                        F#m     C#m
   It took him all his life to know (it took him all his life to know)
G#m                            Bm                        F#m     C#m
   It took him all his life to know (ahhhhhhhhhhhhhhhhhh ahhhhhh to know)
G#m                            Bm                        F#m     C#m   G#m
   It took him all his life to know (it took him all--        to know, know)
                               Bm
   It took him all his life to know

            
            
Suggest correction
Creating personal tab
Creating personal tab
You can edit any tab online and save it as your Personal.

You can edit, replace or remove any tab part or add personal notes – all changes will be seen only by you.

Personal tabs can be accessed anytime from any device, even offline.
Learn more »
comments
print report bad tab
5 comments total. Showing first comments.
+1 reply
m.armstrong 20 Oct 20, 2015 04:23 PM, edited at 08:32 pm

I think it's pretty spot on. Good job man. Just missing the bit that starts at around 2:49 (video version) or after your bit that says "-- The next part is kind of played over the same F# and A chords, with no chords". It goes:

e|--------------------------------------------------------|
B|--7-------9--7------------------------------------------|
G|---------------10--8--6--8--9--8--6-----6---------------|
D|-------------------------------------9------------------|
A|--------------------------------------------------------|
E|--------------------------------------------------------|

guest
You may want to rate the tab now too:
select rating
Wanna post a correction for this tab? Suggest correction