Oops, an error
Loading. Please wait.

Man It Feels Like Space Again tab

by Pond
2,197 views 18 this week
no commentswrite comment
1 2 3 4 5
x 5
add to favorites
×
Save as Personal and add changes to this tab that will be seen only by you. Learn more ›
×
You can save this tab as Personal to edit and correct it or add notes. All changes will be seen only by you. Learn more »
launch autoscroll
font size
0
reset
how to read this tab
guitar tuner
edit
Autoscroll
slow
fast
+/-
esc
set tempo
stop
Author
Man It Feels Like Space Again
Pond
from the album Man It Feels Like Space Again (2015)
Tabbed by Tiagoon

Standard tuning - EADGBe

INTRO (CHORUS 1) - Electric Guitar


   We can talk...
   Dm7                       G6                        Cmaj7
e|----------------1--------|----0--------------------|----0-------------------|
B|-------1-----------1-----|-------0-----------------|-------0----------0-----|
G|----x-----2--2-----------|---------0--------0------|----------0----------0--|
D|-0-----------0--------0--|-----------0------0------|-2-------------------0--|
A|-------------------------|-------------2-----------|-3-------------3--------|
E|-------------------------|-3-------------------2p0-|------------------------|

Right out to-- the---e sea...
   Fmaj7  Am7  Fmaj7 Am7 Dm7                       G6
e|----0--------0---------|-1----------------1----|----0--------0-----------|
B|-------1-----1----1----|----1------------------|-------0-----------------|
G|-------------0----0----|-------2-----2---------|----------0--------0-----|
D|-3--------2-----3p2--0-|----------0------------|-------------------0--x--|
A|-----------------------|-----------------------|-2-----------------2--x--|
E|-----------------------|-----------------------|-3--------------3--------|

    Maybe that's why...
   E6                     Edim7                        D
e|----4--------4--------3--|----3--------3--------3--|----2-----------2--------|
B|----2--2-----2--------2--|----2--------------2-----|-------3-----------3-----|
G|----------------4-----3--|-------3--------3--3-----|----------2--------------|
D|-------------------------|-------------------------|-0-----------0--------0--|
A|-2--------2--------2-----|-4--------4--------------|-------------------------|
E|-------------------------|-------------------------|-------------------------|

  ah-ahhhhhh...
   Bdim7
e|----1-----------1---1---1-----|
B|-------0--------0---0---0-----|
G|----------1-----1---1---1-----|
D|------------------------------|
A|-2----------------------------|
E|------------------------------|





VERSE - Electric Guitar

  So, you're at a low...                                             The music fades...
   Bm        Fm    Bm              D     Em          Bm    Em            D      G                      D
e|-2---------2-----2---------------------7-----------7-----7-------------10----------------------------10-|
B|-3---------2-----3---------------7-----8-----------7-----8-------------10-----12----12--12--12-------10-|
G|-4---------2-----4---------------7-----9-----------7-----9-------------11-----12----12--12--12-------11-|
D|-4---------4-----4---------------7-----9-----------9-----9-------------12-----12----12--12--12-------12-|
A|-2---------------2---------------5-----7-----------------7--------------------10----10--10--10----------|
E|--------------------------------------------------------------------------------------------------------|

...mind...                                  and whisper man...
   G                  D     G                   Bm      Am
e|--------------------10------------------------7-------5---5---5-5---5-5-5-5-5-5--|
B|-12---12---12-12----10----12---12---12--12----7-------5---5---5-5---5-5-5-5-5-5--|
G|-12---12---12-12----11----12---12---12--12----7-------5---5---5-5---5-5-5-5-5-5--|
D|-12---12---12-12----12----12---12---12--12----9-------7---7---7-7---7-7-7-7-7-7--|
A|-10---10---10-10----------10---10---10--10---------------------------------------|
E|---------------------------------------------------------------------------------|

  Man, it feels like space again                                                                 and rollen...
   G      D          G            Bm    Em       Bm    Em       G    Am      Em     Am      G   C      G
e|-3-----------------3------------7-----7--------7-----7--------3----5-------7------5-------3--------------|
B|-3------7----------3------------7-----8--------7-----8--------3----5-------8------5-------3---5------0---|
G|-4------7----------4------------7-----9--------7-----9--------4----5-------9------5-------4---5------0---|
D|-5------7----------5------------9-----9--------9-----9--------5----7-------9------7-------5---5------0---|
A|--------5-----------------------------7--------------7---------------------7------------------3----------|
E|-3-----------------3------------------------------------------3---------------------------3--------------|
      and Jesus says... they both say
   C      G     C            
e|-------------------------------------------------------------------------------|
B|-5------0-----5------------5---------------------------------------------------|
G|-5------0-----5------------5---------------------------------------------------|
D|-5------0-----5------------5---------------------------------------------------|
A|-3------------3------------3---------------------------------------------------|
E|-------------------------------------------------------------------------------|





SOLO (over voice)

My opinion is that this solo is made with a pitch shifter, shifting one octave up, as Nick uses the same pedal
during the song in live versions (and it also has the characteristic sound in the album version). So actually
he would be playing one octave down. However, I will tab it as if he didn't use any pedals.

   Man...
e|---------------------------------|----------------------------------|-------------------------------|
B|---------------------------------|----------------------------------|------------12-----15\12---12--|
G|------------12------pb14r12------|------------------12-pb14r12------|-----12h14---------------------|
D|-----12h14------14-----------14--|-----12h14-12h14--------------14--|-------------------------------|
A|---------------------------------|----------------------------------|-------------------------------|
E|---------------------------------|----------------------------------|-------------------------------|

e|---------------------------------------|-------------------------------|---------------------/20\15---15--|
B|--------12h15p12-----------------------|--12h15---/17--15---17\12--12--|--12h15---/17--/20----------------|
G|--12h14----------14-12h14--14---14-12--|-------------------------------|----------------------------------|
D|---------------------------------------|-------------------------------|----------------------------------|
A|---------------------------------------|-------------------------------|----------------------------------|
E|---------------------------------------|-------------------------------|----------------------------------|

e|-------------15------------|------------------|------------------|
B|--15---/17------17----13---|--------13--------|--------13--------|
G|---------------------------|--12--------------|--12--------------|
D|---------------------------|------------------|------------------|
A|---------------------------|------------------|------------------|
E|---------------------------|------------------|------------------|




CHORUS 2 - Electric Guitar


   We can talk...
   Dm7                       G6                        Cmaj7
e|-------1-----------------|-------0-----------------|----0-------------------|
B|-1--------1---------1----|---------0---------------|-------0----------0-----|
G|-2-----------2-----------|-------------------------|----------0-------------|
D|-0-----------------------|------------------0------|------------------------|
A|-------------------------|-------------------------|-3----------------------|
E|-------------------------|-3-----------------------|------------------------|

Right out to-- the---e sea...
   Fmaj7  Am7  Fmaj7 Am7 Dm7                       G6
e|-----------------------|-1---------------------|-------0-----------------|
B|----1--------1----1----|----1-------------1----|----0-----0--0-----0-----|
G|-2-------------------2-|-------2----------2----|-------------0-----0-----|
D|-3--------2-----3p2--0-|----------0------------|-------------0-----0-----|
A|-----------------------|-----------------------|-------------------2-----|
E|-----------------------|-----------------------|-3--------------3--------|

    Maybe that's why...
   E6                       Edim7                        D
e|-4----4--4----------4----|-3-------3---------------|-2----2----------2-------|
B|-2-----------------------|-2-------2---------------|-3-------3----------3----|
G|-4-----------------------|-3-------3---------------|-2------------------2----|
D|-2----------2------------|-2-----------------2--0--|-0------------0----------|
A|-------------------------|-------------------------|-------------------------|
E|-------------------------|-------------------------|-------------------------|

  ah-ahhhhhh...
   Fdim7                    
e|----------1------------|-1-----------------------------|
B|-------0---------------|-0-----------------------------|
G|----1--------1---------|-1--(keep playing the chord)---|      and fade into the next part
D|-------------------0---|-0-----------------------------|
A|----------------2------|-2-----------------------------|
E|-1---------------------|-1-----------------------------|




MIDDLE 1


Keep strumming in the chords (acoustic guitar)
Alternating strumming and picking (electric guitar)


    C#     G#m7      C#      G#m7       G      A       G      A
e|----------4-----------------4---------3------5-------3------5---------|
B|--6-------4--------6--------4---------3------5-------3------5---------|
G|--6-------4--------6--------4---------4------6-------4------6---------|    X4
D|--6-------4--------6--------4---------5------7-------5------7---------|
A|--4-------6--------4--------6-----------------------------------------|
E|----------4-----------------4---------3------5-------3------5---------|



MIDDLE 2A - Acoustic Guitar

Strumming

     F#         F#maj7          A
e|---2------------2-------------5------------------|
B|---2------------2-------------5------------------|
G|---3------------3-------------6------------------|    X4
D|---4------------3-------------7------------------|
A|---4------------4-------------7------------------|
E|---2------------2-------------5------------------|



MIDDLE 2A - Electric Guitar


e|------------------------------------------------------|
B|-7----9--7--6--4--2--4--5--4--2--0--2-----------------|
G|------------------------------------------------------|    X4
D|------------------------------------------------------|
A|------------------------------------------------------|
E|------------------------------------------------------|





MIDDLE 2B - Electric Guitar (Groovy part)


e|-----------------|-----------------|-----------------|----------------|
B|-----------------|-----------------|-----------------|----------------|
G|-----------------|-----------------|-----------------|----------------|    X8
D|---------4-------|---3-----3-------|---------7-------|---7-----7------|
A|-----------------|-----------------|-----------------|----------------|
E|-2-----2-------2-|-1-----1-------4-|-5-----5-------5-|-5-----5---5-7\-|


After 4 times of the groovy part, the Electric Guitar MIDDLE 2 part starts playing over it:


e|------------------------------------------------------|
B|-7----9--7--6--4--2--4--5--4--2--0--2-----------------|
G|------------------------------------------------------|    X4
D|------------------------------------------------------|
A|------------------------------------------------------|
E|------------------------------------------------------|




MIDDLE 2C - Acoustic Guitar

Strumming

     F#         F#maj7          A               B
e|---2------------2-------------5---------------7---|
B|---2------------2-------------5---------------7---|
G|---3------------3-------------6---------------8---|    X8
D|---4------------3-------------7---------------9---|
A|---4------------4-------------7---------------9---|
E|---2------------2-------------5---------------7---|


MIDDLE 2Ca - Electric Guitar

Single strokes

     F#         F#maj7          A               B
e|---2------------2-------------5---------------7---|
B|---2------------2-------------5---------------7---|
G|---3------------3-------------6---------------8---|    X3
D|---4------------3-------------7---------------9---|
A|-------------------------------------------x------|
E|---2------------2-------------5------------x--7---|

4th time:

     F#                        A               
e|---6----6----6--6---6--6-----9-----9--9--9--9--9--9--9--9----|
B|---7----7----7--7---7--7-----10----10-10-10-10-10-10-10-10---|
G|---6----6----6--6---6--6-----9-----9--9--9--9--9--9--9--9----| 
D|-------------------------------------------------------------|
A|-------------------------------------------------------------|
E|-------------------------------------------------------------|

MIDDLE 2Cb - ELectric Guitar

The same as MIDDLE 2A but one octave higher. He uses a pitch shifter to highten an octave, however I will tab
it as if he didn't use any pedals.


e|-14----16--14--13--11--9--11--12--11--9--7-/9-----|
B|--------------------------------------------------|
G|--------------------------------------------------| 
D|--------------------------------------------------|
A|--------------------------------------------------|
E|--------------------------------------------------|

e|-14----16--14--13--11--9--11--12--11--9--7--9h11-9--|
B|----------------------------------------------------|
G|----------------------------------------------------| 
D|----------------------------------------------------|
A|----------------------------------------------------|
E|----------------------------------------------------|

e|-14----16--14--13--11--9--11--12--11--9--7--9-----|
B|--------------------------------------------------|
G|--------------------------------------------------| 
D|--------------------------------------------------|
A|--------------------------------------------------|
E|--------------------------------------------------|

e|-14--------14--13--11--9--11--12~~~~--------------|
B|--------------------------------------------------|
G|--------------------------------------------------| 
D|--------------------------------------------------|
A|--------------------------------------------------|
E|--------------------------------------------------|




CHORUS 3 - Acoustic Guitar

Chords used (strumming)

   Dm7   G     C     F     C     F  C  Dm7   G     E6   Edim7  D   Bdim7
e|-1-----3-----0-----1-----0-----1--0--1-----3-----4-----3-----2-----1------|
B|-1-----3-----1-----1-----1-----1--1--1-----3-----2-----2-----3-----0------|
G|-2-----0-----0-----2-----0-----2--0--2-----0-----4-----3-----2-----1------| 
D|-0-----0-----2-----3-----2-----3--2--0-----0-----2-----2-----0-----0------|
A|-------2-----3-----3-----3-----3--3--------2-----2-----------------2------|
E|-------3-----------1-----------------------3-----0------------------------|


CHORUS 3 - Electric Guitars (harmony)

I will tab both guitars in the same place, so keep in mind it's supposed to pick only one line and follow it.

     We can talk by the river                                 we can walk
e|-13-----------------|--------15---15----------------------|------------------------|
B|-15-----------------|-------------------------------------|--------------5---6---5-|
G|----------10b12r10--|--12---------------12/14--12h14--10--|-9------------5---7---5-|
D|--------------------|-------------------------------------|------------------------|
A|--------------------|-------------------------------------|------------------------|
E|--------------------|-------------------------------------|------------------------|

   right out...
e|---------------------------|-----------------------|-------13b15--/12--------|
B|--10--10----8----8b10r8--6-|--6--6--6--6-----12b13-|-12----13b15--/12--13----|
G|--10--10----9----9b10r9--7-|--7--7--7--7-----12b14-|-12----------------12----|
D|---------------------------|-----------------------|-------------------------|
A|---------------------------|-----------------------|-------------------------|
E|---------------------------|-----------------------|-------------------------|

  maybe...       to me... aa--aahhhhh
e|---------|------|---------|-----------------------------|
B|-12------|-14---|-15---15-|-12~~~~~~~~------------------|
G|-13------|-12---|-11---11-|-13--------------------------| 
D|---------|------|---------|-----------------------------|
A|---------|------|---------|-----------------------------|
E|---------|------|---------|-----------------------------|






PRE-OUTRO - Electric Guitar

The frets used for this part are tabbed according to live versions.

e|----------------------|----------------------|----------------------------|---------17-19--21-----20-----|
B|----------------------|--------------------6-|-7--9--10-12--14--15--16-18-|-19--21-----------------------|
G|----------------------|---------4--6--7--8---|----------------------------|------------------------------|
D|--------------------3-|-4--6--7--------------|----------------------------|------------------------------|
A|---------2--4--5--6---|----------------------|----------------------------|------------------------------|
E|-2--4--5--------------|----------------------|----------------------------|------------------------------|







OUTRO - Electric Guitar

Single strokes and occasional picking in the following chords


      Bm      F#m       C#m           G#m
e|----7--------2---------4----9--------4----7-------------|
B|----7--------2---------5----9--------4----9-------------|
G|----7--------2---------6-or-9--------4-or-8-------------| 
D|----9--------4---------6----11-------6------------------|
A|----9--------4---------4----11-------6------------------|
E|----7--------2--------------9--------4------------------|


************************************

| /   slide up
| \   slide down
| h   hammer-on
| p   pull-off
| ~   vibrato
| x   Mute note
| b   Bend
| pb  Pre-bend
| br  Bend release
| pbr Pre-bend release

************************************

            
            
Suggest correction
Creating personal tab
Creating personal tab
You can edit any tab online and save it as your Personal.

You can edit, replace or remove any tab part or add personal notes – all changes will be seen only by you.

Personal tabs can be accessed anytime from any device, even offline.
Learn more »
comments
print report bad tab
guest
You may want to rate the tab now too:
select rating
Wanna post a correction for this tab? Suggest correction