Oops, an error
Loading. Please wait.

Moth Wings Tab

by Pond
6,732 views 15 this week
3 commentsread comments
1 2 3 4 5
excellent!
x 7
add to favorites
launch autoscroll
font size
0
reset
how to read this tab
guitar tuner
Autoscroll
slow
fast
+/-
esc
set tempo
stop
Help us to improve Ultimate-Guitar.com Take our survey!
×
Pond - Moth Wings
Beard, Wives, Denim

Intro:

E|------------------------|
B|--14----------------12--|
G|--14----------------9---|
D|--14----------------9---|
A|--12--------------------|
E|------------------------|

Verse:
Guitar follows this bass melody, listen for timing

G|----------------------------------------------------|
D|-------------------------------------5--------------|
A|--5--7--5--7--5--7--5-------------------7--5--7--7--|
E|-----------------------7--6--5--5-------------------|


"Ah Ah Ah Ah"
e|--------------|
B|--------------|
G|--7--7--7--9--|
D|--7--7--7--9--|
A|--5--5--5--7--|
E|--------------|

Main bit of awesome:
Guitar/Bass
e|--------------------------------------|
B|--------------------------------------|
G|--------------------------------------|
D|--------------------------------------|
A|--------7--6-----------7--9--7--9--7--|
E|--7--7--------7--5--5-----------------|


Guitar 2
Fast picking tremolo
e|--------------------------------------|
B|--12--10--9--10--9--7--9--7--4--5--7--|
G|--------------------------------------|
D|--------------------------------------|
A|--------------------------------------|
E|--------------------------------------|

No solo yet sorry :(

Any suggestions please email jasonploeg@yahoo.com.au
Suggest correction new What's this?
You can suggest a correction to this tab. Community and Mods will review your correction and vote to approve or reject it.
comments
print report bad tab
3 comments total.
-1 reply
Dropshock 10 wrote on September 19 2013, 11:24 pm

I find this more accurate for the guitar version of the verse (Not sure about bass):


G|------------------------------------------------------------|
D|------------------------------------------5-----------------|
A|--5h7--7--5--7--7--5--7--5-------------------7--5--7--7-----|
E|----------------------------7--6--5--5-------------------0--|


Also the "Main bit of awesome" Sounds off and I can't figure out the correct version.

+1 reply
whyamisigningup 16 wrote on April 23 2014, 07:49 am

CHORUS (main bit of awesome)
e|--------------------------------------|
B|--------------------------------------|
G|--------------------------------------|
D|------------------------------7--9----|
A|--------7--6-----------7--9-----------|
E|--7--7--------7--5--5-----------------|

HERE YOU GO HONEY BUNS

+1 reply
whyamisigningup 16 wrote on April 23 2014, 08:19 am

SORRY FORGOT THE SOLO
lots of wah kids. nice dirty sound.
e|----------------------------------------------------|
B|----------------------------8-10h12p10p8------------|
G|-----------------/9----------------------9----------|
D|----------------------------------------------------|
A|-7--7--7--7-----------------------------------------|
E|----------------------------------------------------|

e|--------------------------------------------xxx--12-| whammy bar that 12
B|--------------------------------------------xxx-----|
G|-9p7------------------------7-9--9p7--------xxx-----|
D|-----9p8p7-7-7-7h9p7--7-999----------9p7----xxx-----|
A|--------------------------------------------xxx-----|
E|--------------------------------------------xxx-----|

e|--------------------------------------------xxx-----|
B|--------------------------------------------xxx-----|
G|-9--9--9-[whammybar]--9p7-------------------xxx-----|
D|---------------------------9p7--------------xxx-----|
A|---------------------------------7--7-------xxx-----|
E|--------------------------------------------xxx-----|

guest
You may want to rate the tab now too:
select rating
Please do not post tabs as comments. Select "correction" instead!