Oops, an error
Loading. Please wait.

Sweep Me Off My Feet chords

by Pond
1,342 views 21 this week
2 commentsread comments
1 2 3 4 5
x 3
add to favorites
×
Save as Personal and add changes to this tab that will be seen only by you. Learn more ›
×
You can save this tab as Personal to edit and correct it or add notes. All changes will be seen only by you. Learn more »
launch autoscroll
font size
0
reset
transpose
0
reset
simplify chords
display chords
guitar tuner
edit
Autoscroll
slow
fast
+/-
esc
set tempo
stop
Strumming
There is no strumming pattern for this song yet. and get +5 IQ
[Chords]
F      x-8-10-10-10-x
Cm7    8-10-8-8-11-8
Eb     x6888x
Bb     68876x

[Intro]
(Synth bass)
e|----------------------------------------------------------------------------|
B|----------------------------------------------------------------------------|
G|----------------------------------------------------------------------------|
Eb|--7~----3h5-3--------5-3--------------------------------------------------|
A|------6~-------3--5-6------6------------------------------------------------|
E|----------------------------------------------------------------------------|

(Synth)
    F   Cm7   F  Cm7  Eb    Bb
e|---------8-------------------------------------------------------------------|
B|--10--11----10--8---8-----6--------------------------------------------------|
G|--10--8-----10--8---8-----7--------------------------------------------------|
Eb|-----8-------------8-----8-----------------------------------------------------|
A|--8---------8-------6-----8--------------------------------------------------|
E|------8---------8---------6---------------------------------------------------|

[Verse 1]
F    Cm7          F       Cm7     Eb Bb
Hey, you, I'm not bold or cool or masculine
F                                 Cm7                         F  Cm7
Maybe you're just waiting for the perfect Latin lover to walk in
        Eb Bb
I'm not him

[Verse 2]
F                       Cm7     F    Cm7      Eb Bb
Between my penis and my chin is Camembert and shame
F                      Cm7          
I used to be elegantly thin
    F     Cm7           Eb          Bb
I'm sorry babe, we both missed that train

[Verse 3]
F   Cm7       F     Cm7          Eb            Bb
Oh, no, if I follow you all your girlfriends will know
F                                Cm7   F  Cm7   Eb Bb
Then I'll wind up with the other fools wasting, wasting his
F                   Cm7     
Time following you 'round
        F      Cm7      Eb         Bb
Another lonely guy with longing in his eye
F                 Cm7             F   Cm7  Eb Bb
But you said your man is bringing you down

[Interlude}
F   Cm7   F  Cm7 Eb Bb

[Chorus]
F       Cm7          F  Cm7 Eb Bb
Someone sweep me off my feet
F                  Cm7   
I am not an angel, I'm barely a man
    F              Cm7 
I'm lonely but I'm here
Eb     Bb
Baby, understand
F       Cm7          F  Cm7 Eb Bb
Someone sweep me off my feet

[Solo] (x4)
F Cm7 F Cm7 Eb Bb 

[Chorus]
F       Cm7          F  Cm7 Eb Bb
Someone sweep me off my feet
F                  Cm7   
I am not an angel, I'm barely a man
    F              Cm7 
I'm lonely but I'm here
Eb     Bb
Baby, understand
F       Cm7          F  Cm7 Eb Bb
Someone sweep me off my feet
ohhh

            
            
Suggest correction
Creating personal tab
Creating personal tab
You can edit any tab online and save it as your Personal.

You can edit, replace or remove any tab part or add personal notes – all changes will be seen only by you.

Personal tabs can be accessed anytime from any device, even offline.
Learn more »
Give kudos to tab author, rate the tab!
1 2 3 4 5
comments
print report bad tab
2 comments total.
0 reply
majorseventh 2,330 Jul 07, 2017 04:58 PM

I initially posted the intro chords as F Cm7 F Cm7 Ebmaj7 Dm7 which sounds pretty good to me too...i honestly cant tell what sounds better

0 reply
antongusev7 10 Sep 21, 2017 04:10 PM

Good job, thanks a lot. This song is fun to play.

guest
You may want to rate the tab now too:
select rating
Wanna post a correction for this tab? Suggest correction