Oops, an error
Loading. Please wait.

The Weather chords

by Pond
1,450 views 12 this week
no commentswrite comment
1 2 3 4 5
x 3
add to favorites
×
Save as Personal and add changes to this tab that will be seen only by you. Learn more ›
×
You can save this tab as Personal to edit and correct it or add notes. All changes will be seen only by you. Learn more »
launch autoscroll
font size
0
reset
transpose
0
reset
simplify chords
display chords
guitar tuner
edit
Autoscroll
slow
fast
+/-
esc
set tempo
stop
Strumming
There is no strumming pattern for this song yet. and get +5 IQ
[Intro] 
(This chord progression is used for the entire song)
(Synth for guitar)
    E   Bm7  Dmaj7 Amaj7 Gmaj7 Bm  Cmaj7  G
e|------------------4-----7----7----7-------------------------------------------|
B|--9----10----7----5-----7----7----8-----12------------------------------------|
G|--9----7-----6----6-----7----7----9-----12------------------------------------|
D|--9----7-----7----6-----5----9----9-----12------------------------------------|
A|--7----9-----5----------5----9----------10------------------------------------|
E|-------7----------5----------7----8-------------------------------------------|

Verse 2
(0:51)Clean channel guitar with wah pedal
    E                 Bm7   Dmaj7      Amaj7      Gmaj7    Bm  Cmaj7  G
e|--------4-4/5\4---------------------------------------------------------------|
B|--5---5---------5------2--3p2h3-3/5--2p0h2--2/3-------2--3p2h3----------------|
G|----4-------------4-4---------------------------4p2h4-------------------------|
D|------------------------------------------------------------------------------|
A|------------------------------------------------------------------------------|
E|------------------------------------------------------------------------------|

    Cmaj7      G     Eb
e|------------------------------------------------------------------------------|
B|--5p3h5-5/7--3p2h3-4----------------------------------------------------------|
G|------------------------------------------------------------------------------|
D|------------------------------------------------------------------------------|
A|------------------------------------------------------------------------------|
E|------------------------------------------------------------------------------|


OUTRO
(3:22) Guitar with distortion
e|--12-12-12/14-12-10-12----12-12/14-12-10-12----12-12/14-12-10-12-10b11\-------|
B|----------------------12-------------------12---------------------------------|
G|------------------------------------------------------------------------------|
D|------------------------------------------------------------------------------|
A|------------------------------------------------------------------------------|
E|------------------------------------------------------------------------------|

e|--12-\-12-12-12/14-12-10-12----12-12/14-12-10-12----12-12/14-12-10-12---------|
B|--15b\----------------------12-------------------12------------------12-------|
G|------------------------------------------------------------------------------|
D|------------------------------------------------------------------------------|
A|------------------------------------------------------------------------------|
E|------------------------------------------------------------------------------|



[Verse 1]
E                    Bm7
He sold out both his eyes
    Dmaj7    Amaj7
Yet sees her face
    Gmaj7     Bm
her thighs in lace
   Cmaj7    G
Oh why such waste

[Verse 2]
E                        Bm7
Ghosts are only negative space
  Dmaj7       Amaj7
Ancestors, no blood
   Gmaj7     Bm
no place, no mark
     Cmaj7         G
just voices in the dark

[Chorus]
Eb  E        Bm7
the floor is covered in champagne
    Dmaj7
the leather and the blood
    Amaj7
and all the sudden rain
Gmaj7                    Bm7
man, you should've seen those cops' baptise
    Cmaj7
the worst case scenar-
  G
-io survival game

[Verse 3]
E                    Bm7
He sold out both his eyes
    Dmaj7    Amaj7
Yet sees her face
    Gmaj7     Bm
her thighs in lace
   Cmaj7    G
Oh why such waste

[Interlude]
E   Bm7  Dmaj7 Amaj7 Gmaj7 Bm  Cmaj7  G

[Chorus]
Eb  E        Bm7
the floor is covered in champagne
     Dmaj7
the leather and the blood
Amaj7
and all the sudden rain
Gmaj7                    Bm7
man, you should've seen those cops' baptise
    Cmaj7
the worst case scenar-
  G
-io survival game

[Outro]
E   Bm7  Dmaj7 Amaj7 Gmaj7 Bm  Cmaj7  G
E   Bm7  Dmaj7 Amaj7 Gmaj7 Bm  Cmaj7  G
Eb

            
            
Suggest correction
Creating personal tab
Creating personal tab
You can edit any tab online and save it as your Personal.

You can edit, replace or remove any tab part or add personal notes – all changes will be seen only by you.

Personal tabs can be accessed anytime from any device, even offline.
Learn more »
Give kudos to tab author, rate the tab!
1 2 3 4 5
comments
print report bad tab
guest
You may want to rate the tab now too:
select rating
Wanna post a correction for this tab? Suggest correction