Oops, an error
Loading. Please wait.

Dammi Solo Un Minuto chords

version 2
version 2

Whole song

by Pooh
334 views 12 this week
no commentswrite comment
1 2 3 4 5
1 last vote to show rating
add to favorites
×
Save as Personal and add changes to this tab that will be seen only by you. Learn more ›
×
You can save this tab as Personal to edit and correct it or add notes. All changes will be seen only by you. Learn more »
launch autoscroll
font size
0
reset
transpose
0
reset
simplify chords
display chords
guitar tuner
edit
Autoscroll
slow
fast
+/-
esc
set tempo
stop
Author
Difficulty
Strumming
There is no strumming pattern for this song yet. and get +5 IQ
[Intro]
 F         Dm       Bb  C   F                           F
e| -----6-5---|-----6-5---|------------|-13-10------------------------------------|-----6-5---|
B| -6-8-----8-|-6-8-----8-|-6-6-8-8-10-|-------13-10------------------------------|-6-8-----8-|
G| -----------|-----------|------------|-------------12----------10---------------|-----------|
D| -----------|-----------|------------|----------------10-12-10----12-10---------|-----------|
A| -----------|-----------|------------|----------------------------------12-10-8-|-----------|
E| -----------|-----------|------------|------------------------------------------|-----------|

 Dm       Bb  C  F     Bb    A    Dm   C
e| -----6-5---|---------5-|-----|-------|-----------|---6-|
B| -6-8-----8-|-6-6-8-8---|---6-|-4-----|-------6-5-|-8---|
G| -----------|-----------|-5---|---7-6-|-7---7-----|-----|
D| -----------|-----------|-----|-------|---7-------|-----|
A| -----------|-----------|-----|-------|-----------|-----|
E| -----------|-----------|-----|-------|-----------|-----|

[Verse 1]
   F         A7              Dm
Lo so, so tutto non parlare più
   Bbm            F
lo so che forse è meglio
      A7          Dm
ma crederci non voglio
      Dm7      G
non c'ero preparato
     Bb           C  C7
ci vuole fiato a dirti.
   F         A7                Dm
Addio, c'è fumo e odore caldo qui
    Bbm          F
di dolci e di caffè
   A7           Dm
ognuno pensa a sè
       Dm7          G
è il giorno più normale
    Bb           C  C7
ma io sto male, male.

[Chorus]
F               Dm
Dammi solo un minuto
               Bb      C        F
un soffio di fiato un attimo ancora
                   Dm
stare insieme è finito
           Bb      C         F
abbiamo capito ma dirselo è dura
    Bb          A7           Dm       C  C7
è stato un bel tempo il mio tempo con te.

F               Dm
Dammi solo un minuto
               Bb      C        F
un soffio di fiato un attimo ancora
                   Dm
noi tranquilli e lontani
           Bb       C       F
ognuno per sè piangeremo domani
Bb        A7        Dm       C  C7
ma che coraggio che hai come fai?

[Verse 2]
   F         A7              Dm
E poi, ti guardo in fondo cosa sei
   Bbm            F
un fuoco presto spento
    A7            Dm
se tira un pò di vento
     Dm7          G
un gioco senza impegno
    Bb            C  C7
ma lasci il segno tu.

[Chorus]
F               Dm
Dammi solo un minuto
               Bb      C        F
un soffio di fiato un attimo ancora
                   Dm
stare insieme è finito
           Bb      C        F
abbiamo capito ma dirselo è dura
Bb        A7        Dm       C   C7
svegliati svegliami dai cosa fai?

[Verse 3]
      F         A7                   Dm
Ma è vero che sta tremando il tuo respiro
   Bb
ma si che è proprio vero.

[Chorus]
F     Dm        Bb          C         F
Come mai i tuoi occhi ora stanno piangendo
      Dm         Bb          C                   D
dimmi che era un sogno e ci stiamo svegliando.
G      Em        C           D         G
Come mai i tuoi occhi ora stanno piangendo
          Em           C             D         G
dimmi che era un sogno e ci stiamo svegliando.

 [Outro] (x4)
 F         Dm       Bb  C   F                           F
e| -----6-5---|-----6-5---|------------|-13-10------------------------------------|-----6-5---|
B| -6-8-----8-|-6-8-----8-|-6-6-8-8-10-|-------13-10------------------------------|-6-8-----8-|
G| -----------|-----------|------------|-------------12----------10---------------|-----------|
D| -----------|-----------|------------|----------------10-12-10----12-10---------|-----------|
A| -----------|-----------|------------|----------------------------------12-10-8-|-----------|
E| -----------|-----------|------------|------------------------------------------|-----------|

 Dm       Bb  C  F     Bb    A    Dm   C
e| -----6-5---|---------5-|-----|-------|-----------|---6-|
B| -6-8-----8-|-6-6-8-8---|---6-|-4-----|-------6-5-|-8---|
G| -----------|-----------|-5---|---7-6-|-7---7-----|-----|
D| -----------|-----------|-----|-------|---7-------|-----|
A| -----------|-----------|-----|-------|-----------|-----|
E| -----------|-----------|-----|-------|-----------|-----| 

            
            
Suggest correction
Creating personal tab
Creating personal tab
You can edit any tab online and save it as your Personal.

You can edit, replace or remove any tab part or add personal notes – all changes will be seen only by you.

Personal tabs can be accessed anytime from any device, even offline.
Learn more »
Give kudos to tab author, rate the tab!
1 2 3 4 5
comments
print report bad tab
guest
You may want to rate the tab now too:
select rating
Wanna post a correction for this tab? Suggest correction