Oops, an error
Loading. Please wait.

Apuesto Que No Sabes tab

65 views 1 this week
no commentswrite comment
1 2 3 4 5
3 more votes to show rating
add to favorites
×
Save as Personal and add changes to this tab that will be seen only by you. Learn more ›
×
You can save this tab as Personal to edit and correct it or add notes. All changes will be seen only by you. Learn more »
launch autoscroll
font size
0
reset
how to read this tab
guitar tuner
edit
Autoscroll
slow
fast
+/-
esc
set tempo
stop
ESTA CANCION NO HACE PARTE DEL DISCO UN INTENTO MAS, ES OTRA VERCION
PERO LOS CAMBIOS NO SON MUCHOS...COMENTARIOS DUDAS O SI QUEIRES
CONSEGUIR TABS DE CHITE O ALGUNOS OTROS GRUPOS COLOMBIANOS
ESCRIBAMNE AL CORREO ROCKANDRES182@

Intentar no hablaaar...
e|-------------------------------------|
B|-------------------------------------|
G|------------------------------X4-----|
D|-------------------------------------|
A|-------------------------------------|
E|-00000000-44444444-55555555-7777777--|

Apuesto que no sabes que esta canción...
e|-------------------------------------|
B|-------------------------------------|
G|--------------------------------X2---|
D|-------------------------------------|
A|-77777777----------------------------|
E|----------44444444-55555555-7777777--|

RIFF 1:
e|----------|---------------------------|
B|----------|---------------------------|
G|----------|-----------------------X2--|
D|----------|---------------------------|
A|-77---77--|-77-447744----77------44---|
E|----------|-----------55-----4422--00-|

Pero es que yoo no te puedo decir...
e|-------------------------------------|
B|-------------------------------------|
G|-------------------------------------|
D|-------------------------------------|
A|-77777777----------------------------|
E|----------44444444-55555555-7777777--|

por es que tu me debes decir...
e|-------------------------------------|
B|-------------------------------------|
G|-------------------------------------|
D|-------------------------------------|
A|-7~~---------------------------------|
E|----------4~~------5~~------7~~------|

RIFF 2:
e|---------------------------------------|
B|---------------------------------------|
G|---------------------------------------|
D|---------------------------------------|
A|-7788-7788-7788-----7788-7788-7788-----|
E|----------------55-----------------77--|

Te invinvito a salir...
e|----------------------------------------|
B|----------------------------------------|
G|--------------------------------X2------|
D|----------------------------------------|
A|-77777777-------------------7-9-7-6-----|
E|----------44444444-55555555---------7-9-|

RIFF 1:

Apuesto que no sabes que esta canción...

SALIDA:
e|--------------------------------|
B|--------------------------------|
G|----------------------------X2--|
D|--------------------------------|
A|--------------------------------|
E|-0~~---0-4~~----4-5~~---57-5~~--|

e|-------------------------------------|---|
B|-------------------------------------|---|
G|------------------------------X3-----|---|
D|-------------------------------------|---|
A|-------------------------------------|---|
E|-00000000-44444444-55555555-7777777--|-0-|

Intentar no hablaaar
tener que aguantaaar
no poder saber lo que piensas de mi
la suerte no esta de mi lado esta veZ

Apuesto que no sabes que esta canción
la escribi para ti
todos los dias me gustas mas
uoh, uoh

hoy te vi caminando
yo como siempre temblando
todos los días te pienso más
uoh, uoh

Pero es que yoo no te puedo decir
mis nervios no ayudan a decidir
por es que tu me debes decir
sii sieentes lo mismo que siento yo,

Te invinvito a salir
vamos a caminar
comemos helado, no me digas que no
te invinvito a salir
vamos a caminar
comemos helado no me digas que no

Apuesto que no sabes que esta canción
la escribi para ti,
todos los dias me gustas mas,
uoh, uoh,
hoy te vi caminando,
yo como siempre temblando,
todos los días te pienso más,

uoh, uoh,
uoh, oh oh oh.

            
            
Suggest correction
Creating personal tab
Creating personal tab
You can edit any tab online and save it as your Personal.

You can edit, replace or remove any tab part or add personal notes – all changes will be seen only by you.

Personal tabs can be accessed anytime from any device, even offline.
Learn more »
Give kudos to tab author, rate the tab!
1 2 3 4 5
comments
print report bad tab
guest
Wanna post a correction for this tab? Suggest correction