Oops, an error
Loading. Please wait.

Dame Mi Bicicleta tab

29 views 3 this week
no commentswrite comment
1 2 3 4 5
3 more votes to show rating
add to favorites
×
Save as Personal and add changes to this tab that will be seen only by you. Learn more ›
×
You can save this tab as Personal to edit and correct it or add notes. All changes will be seen only by you. Learn more »
launch autoscroll
font size
0
reset
how to read this tab
guitar tuner
edit
Autoscroll
slow
fast
+/-
esc
set tempo
stop
Hey esta me la pidieron al correo si los puedo ayudar escribanme
a edsmetal@ los ayudo y despues nos vemos en un
concierto de algun grupo en medellin o bogota aveces que debemos
esperar que cuadren el sonido y en una de esas
conversamos e intercambiamos musica.


INTRO:

          E                 C#m              F#m            A     B
e|------------------------------------------------------------------|
B|------------------------------------------------------------------|
G|-99-999-999-999-9--66-666-666-666-6-------------------------------|
D|-99-999-999-999-9--66-666-666-666-6--44-444-444-444-4--77-777-7-9-|
A|-77-777-777-777-7--44-444-444-444-4--44-444-444-444-4--77-777-7-9-|
E|-------------------------------------22-222-222-222-2--55-555-5-7-|

RIIFF 1

e|-------------------------------------------------------
B|-------------------------------------------------------
G|-99-999-9999-11-11-11-88-88-99-999-9999-11-11-11--88---
D|-------------------------------------------------------
A|-77-777-7777-9--9--9--66-77-77-777-7777-9--9--9---66---
E|-------------------------------------------------------


----------------------------------------------------------|
----------------------------------------------------------|
--99-999-9999-11-11-11--88--1414-141414-14-1313-13-1111-11|
----------------------------------------------------------| X2
--77-777-7777-9--9--9---66--1212-121212-12-1111-11-9-9--9-|
----------------------------------------------------------|

SE REPITE X2

           verso 1:
                  E     C#   F#    A    B
e|-------|----------------------------------|
B|-------|----------------------------------|
G|----9--|------9-----6---------------------|
D|-------|------9-----6----4-----7----9-----|
A|----7--|------7-----4----4-----7----9-----|
E|-------|-----------------2-----5----7-----|

       E
Para que?

      C#                    F#
Me haces sentir asi dime que quieres de mi

        A           B         E
no entiendo ya tu puto juego

              C#                   F#
no se que pensar no se si es amistad

                  A         B
estoy tan confundido ya mejor vete


CORO:


  A        C#   B
   ya no mas

  A       C#   B      A
   no me ilusiones mas

    A      B          E
   basta ya de esto


         E                 C#m              F#m            A     B
e|------------------------------------------------------------------|
B|------------------------------------------------------------------|
G|-99-999-999-999-9--66-666-666-666-6-------------------------------|
D|-99-999-999-999-9--66-666-666-666-6--44-444-444-444-4--77-777-7-9-|
A|-77-777-777-777-7--44-444-444-444-4--44-444-444-444-4--77-777-7-9-|
E|-------------------------------------22-222-222-222-2--55-555-5-7-|


e|-------------------------------------------------------
B|-------------------------------------------------------
G|-99-999-9999-11-11-11-88-88-99-999-9999-11-11-11--88---
D|-------------------------------------------------------
A|-77-777-7777-9--9--9--66-77-77-777-7777-9--9--9---66---
E|-------------------------------------------------------


----------------------------------------------------------|
----------------------------------------------------------|
--99-999-9999-11-11-11--88--1414-141414-14-1313-13-1111-11|
----------------------------------------------------------|
--77-777-7777-9--9--9---66--1212-121212-12-1111-11-9-9--9-|
----------------------------------------------------------|

 verso 2:
                  E     C#   F#    A    B
e|-------|----------------------------------|
B|-------|----------------------------------|
G|----9--|------9-----6---------------------|
D|-------|------9-----6----4-----7----9-----|
A|----7--|------7-----4----4-----7----9-----|
E|-------|-----------------2-----5----7-----|

(Aqui se repiten los mismos acordes que en el verso 1)


entiende ya no quiero seguir asi

tu juguete hasta morir no soy tu marioneta

no te quiero ver no me vuelvas a buscar

no te vuelvas a insinuar dame mi bicicleta


CORO:


  A        C#   B
   ya no mas

  A       C#   B      A
   no me ilusiones mas

    A      B          E
   basta ya de esto


 (por fin la parte que estaba esperando)

solo:

e|-----------------------------------------------
B|-----------------------------------------------
G|-----------------------------------------------
D|-----------------6-6/10-10/13-13p14-16-16/18---
A|-----5/7 5/7-/9--------------------------------
E|-----------------------------------------------

------------------------------------------------------|
------------------------------------------------------|
------------------------------------------------------|
-1816-16-16/1816-14-13p14-13-14-13--11/13-14-16-13--| x2
------------------------------------------------------|
------------------------------------------------------|


Esta parte va mas pausada como por tiempos
e|-------------------------------------------------------
B|-------------------------------------------------------
G|-99-999-9999-11-11-11-88-88-99-999-9999-11-11-11--88---
D|-------------------------------------------------------
A|-77-777-7777-9--9--9--66-77-77-777-7777-9--9--9---66---
E|-------------------------------------------------------


----------------------------------------------------------|
----------------------------------------------------------|
--99-999-9999-11-11-11--88--1414-141414-14-1313-13-1111-11|
----------------------------------------------------------|
--77-777-7777-9--9--9---66--1212-121212-12-1111-11-9-9--9-|
----------------------------------------------------------|


(aqui sigue la misma figura del solo pero haciendo
    una especie de tremolo y mas rapido).


e|-----------------------------------------------
B|-----------------------------------------------
G|-----------------------------------------------
D|-----------------6-6/10-10/13-13p14-16-16/18---
A|-----5/7 5/7-/9--------------------------------
E|-----------------------------------------------

------------------------------------------------------|
------------------------------------------------------|
------------------------------------------------------|
-1816-16-16/1816-14-13p14-13-14-13--11/13-14-16-13--| x2
------------------------------------------------------|
------------------------------------------------------|


 yo se que esta bien, no es perfecta pero esta bien ademas
 despues de aprenderte esto puedes ponerle el ritmo que tiene
 la guitarra en los versos y el coro, espero que les guste el solo
 por que a mi me agrada mucho parece como el pre-solo
 de una cancion de metal neo-clasico. que la disfruten,
 gracias a popcorn por crearla, y ustedes le pueden dar las gracias
 a mercy johanna valencia en popayan que me pidio que transcribiera
 LA cancion.

            
            
Suggest correction
Creating personal tab
Creating personal tab
You can edit any tab online and save it as your Personal.

You can edit, replace or remove any tab part or add personal notes – all changes will be seen only by you.

Personal tabs can be accessed anytime from any device, even offline.
Learn more »
Give kudos to tab author, rate the tab!
1 2 3 4 5
comments
print report bad tab
guest
Wanna post a correction for this tab? Suggest correction