Oops, an error
Loading. Please wait.

No Te Quiero Perder tab

33 views 1 this week
no commentswrite comment
1 2 3 4 5
3 more votes to show rating
add to favorites
×
Save as Personal and add changes to this tab that will be seen only by you. Learn more ›
×
You can save this tab as Personal to edit and correct it or add notes. All changes will be seen only by you. Learn more »
launch autoscroll
font size
0
reset
how to read this tab
guitar tuner
edit
Autoscroll
slow
fast
+/-
esc
set tempo
stop
INTRO:
e|-----2--------(0)--------3------2---0--|
B|-------3---------(3)-------2-----------|
G|---2--------2----------2-------2---2---|
D|-0--------0----------0--------0---0----|
A|---------------------------------------|
E|---------------------------------------|

"Despierto solo otra vez..."
e|----2------0------------3------2-----0-------------2h3-3-0-|
B|-----3------3----3-------3------3-----3-----2--------------|
G|--2------2-----2--2---2------2-----2------2--3---2---------|
D|-0------0-----0------0------0-----0------0------0----------|
A|-----------------------------------------------------------|
E|-----------------------------------------------------------|

D5*                  A5*
Para besarte una vez mas
       B5*             A5*         G5*        A5*      B5*
y recordar lo bueno que es estar contigo en realidad


Coro:
F5
Si tu eres la que yo soñe eres la que siempre quise
E5
y no te quiero perder!!!!
A5           E5   E#5     F5 E#5 E5
No te quiero perder!!!
A5           E5   E#5     F5 E#5 E5
No te quiero perder!!!
A5           E5   E#5     F5 E5 A#5
No te quiero perder!!!!
D5*                                            E5
Quedarte siempre!!!, quedarte siempre junto a mi

D5 A5 B5 A5 G5 A5 B5

"Y si me llegas a olvidar..."
e|--------------------------------------------|
B|--------------------------------------------|
G|-05050505050505050505040404040404040404040--|
D|--------------------------------------------|
A|--------------------------------------------|
E|--------------------------------------------|
  |-----------pm-----------------|

D5*                  A5*
Ojala tu sientas igual
       B5*           A5*         G5*        A5*    B5*
y podamos hacer todos nuestros sueños realidad


Coro
F5
Si tu eres la que yo soñe eres la que siempre quise
E5
y no te quiero perder!!!!
A5           E5   E#5     F5 E#5 E5
No te quiero perder!!!
A5           E5   E#5     F5 E#5 E5
No te quiero perder!!!
A5           E5   E#5     F5 E5 A#5
No te quiero perder!!!!
D5*                                            E5
Quedarte siempre!!!, quedarte siempre junto a mi

(PICK SLIDE)

D5*             A5*
Despierto solo otra vez
   B5*               A5*
pero quisiera estar dormido
G5*         A5*         B5*
y soñarte un poco mas!!!
D5*               A5*
Para besarte una vez mas
     B5*               A5*        G5*          A5*         B5*
y recordar lo bueno que es estar contigo en realidad

(PICK SLIDE)

Coro:
F5
Si tu eres la que yo soñe eres la que siempre quise
E5
y no te quiero perder!!!!
A5           E5   E#5     F5 E#5 E5
No te quiero perder!!!
A5           E5   E#5     F5 E#5 E5
No te quiero perder!!!
A5           E5   E#5     F5 E5 A#5
No te quiero perder!!!!
D5*                                            E5
Quedarte siempre!!!, quedarte siempre junto a mi

e|----------------------------------------------------------------|
B|-14-14---14-14-14-12-12---12-12-12-14-16-16---16-16-16-14-14----|
G|----------------------------------------------------------------|
D|----------------------------------------------------------------|
A|----------------------------------------------------------------|
E|----------------------------------------------------------------|

e|-----------------------------------------------------------------------|
B|-14-14-14-12-12-12-12---12-12-12-11-11---11-11-11-12-12---12-12-12-14--|
G|-----------------------------------------------------------------------|
D|-----------------------------------------------------------------------|
A|-----------------------------------------------------------------------|
E|-----------------------------------------------------------------------|
    ^ ^ ^ ^
e|-14141414--12-12-12---12-12-14-15-15-15---15-15-15-14-14----|
B|------------------------------------------------------------|
G|------------------------------------------------------------|
D|------------------------------------------------------------|
A|------------------------------------------------------------|
E|------------------------------------------------------------|

e|-14-14-14-12-12--12-12-12-11-11---11-11-11-12-12---12-12-12---14--|
B|------------------------------------------------------------------|
G|------------------------------------------------------------------|
D|------------------------------------------------------------------|
A|------------------------------------------------------------------|
E|------------------------------------------------------------------|

e|--X---X---X---X---X---X---X---X--| ^ = full
B|--X---X---X---X---X---X---X---X--| h = hammer on
G|--7---X---X---X---11--8---9---10-| ()= nota fantasma
D|--7---7---9---5---X---X---X---X--| * = palm mute
A|--5---7---9---5---9---6---7---8--|
E|--X---5---7---3---X---X---X---X--|
    D5  A5  B5  G5  F5  A#5 E5  E#5


ESTA NO ES LA VERCION DEL DISCO UN INTENTO MAS
DUDAS COMENTARIOS Y MAS AL CORREO ROCKANDRES182@
Suggest correction
Creating personal tab
Creating personal tab
You can edit any tab online and save it as your Personal.

You can edit, replace or remove any tab part or add personal notes – all changes will be seen only by you.

Personal tabs can be accessed anytime from any device, even offline.
Learn more »
Give kudos to tab author, rate the tab!
1 2 3 4 5
comments
print report bad tab
guest
Wanna post a correction for this tab? Suggest correction