Oops, an error
Loading. Please wait.

Que Puedo Decir chords

version 2
version 2

Whole song

29 views 3 this week
no commentswrite comment
1 2 3 4 5
3 more votes to show rating
add to favorites
×
Save as Personal and add changes to this tab that will be seen only by you. Learn more ›
×
You can save this tab as Personal to edit and correct it or add notes. All changes will be seen only by you. Learn more »
launch autoscroll
font size
0
reset
transpose
0
reset
simplify chords
display chords
guitar tuner
edit
Autoscroll
slow
fast
+/-
esc
set tempo
stop
Strumming
There is no strumming pattern for this song yet. and get +5 IQ
intro: D,A,Bm,G,A


      D            A          Bm          G/A

E------2----|------0----|------0----|----0-----0|
B--------3--|--------3--|--------3--|-----------|
G-----------|-----------|-----------|-----------|    REPITE 2 VECES
D--0-0------|-----------|-----------|-----------|
A-----------|--0-0------|--2-2------|--------0--|
E-----------|-----------|-----------|--3--------|

EN ESTA PARTE SOLO HAY UNA PEQUENA VARIACIONEN LA PRIMERA CUERDA

      D            A          Bm          G/A

E------3----|--------3--|------2----|----0-----0|
B--------3--|------3----|--------3--|-----------|
G-----------|-----------|-----------|-----------|
D--0-0------|-----------|-----------|-----------|
A-----------|--0-0------|--2-2------|--------0--|
E-----------|-----------|-----------|--3--------|

CUANDO ENTRA LA GUITARRA ELECTRICA, EN LA SEGUNDA VUELTA DE ESTA SE
METE EL RIFF 1 EN CADA UNO DE LOS ACORDES MENOS EN G Y EN A Q SE
METE EL RIFF 2, Q ES MUY PARECIDO. TODO ESTO SE REPITE DOS VECES
PARA ENTRA LUEGO A LA ESTROFA.

RIFF 1:
E------------------------------------------------------------|
B------------------------------------------------------------|
G------------------------------------------------------------|
D-----------------0--2--4--4-4--4--0--2--4--4-5--------------|
A------------------------------------------------------------|
E------------------------------------------------------------|

RIFF 2:
E------------------------------------------------------------|
B------------------------------------------------------------|
G------------------------------------------------------------|
D-----------------0--2--4--4-2--2--0--2--4--4-2--------------|
A------------------------------------------------------------|
E------------------------------------------------------------|


D                 A                       Bm
Quedo pensando en ti Después de oírte decir
                         G
Que has conocido a alguien Que te hace muy feliz
D             A                  Bm
Nada puedo decir Ya me tocaba a mí
                   G
Yo se lo hice alguien Y no me iba a convenir

CORO:

D                 F#
Yo entiendo tu razón Tal vez siempre
         G
Fue mi error Por no querer darme
  A
Cuenta se me rompió El corazón
D                F#                    G
Hoy te pido perdón Por darte una ilusión
                      A
Yo también sueño contigo Lamento mi situación

D  A  Bm  G  x4 (EN A SEGUNDA VUELTA SE LE METE EL RIFF 1, Y EN LA
                 CUARTA VUELTA EL RIFF 2)


D                  A                  Bm
Quedo pensando en ti No se ni que sentir
                G
Paso tan de repente Ojala seas feliz
D                A                    Bm
Espero podamos ser Lo que nunca pudo ser
               G                             A
Amigos solo amigos No hay mas nada por hacer

CORO

A        F#      G
Ohhhhhhhhhhhhhhhhhhhhhhhhh
    A
Que puedo decir
A        F#      G
Ohhhhhhhhhhhhhhhhhhhhhhhhh
    A            D
Que puedo decir
            E         G
Que fue muy lindo conocerte
     A              D
Y no te puedo olvidar...


ESTA ES UNA CORRECION DE ALGUNOS ERRORES Q TENIA
LA TABLATURA ANTERIOR, Y ESTA BASADA EN EL VIDEO
Q PUEDO DECIR DE POPCORN Q SE ENCUENTRA EN YOUTUBE
ESPERO LA DISFRUTEN Y LES GARANTIZO Q ESTA EN UN
95% BUENA...SI TIENEN ALGUN APORTE O CORRECION
PUEDEN ESCRIBIR A tomandoconciencia@

            
            
Suggest correction
Creating personal tab
Creating personal tab
You can edit any tab online and save it as your Personal.

You can edit, replace or remove any tab part or add personal notes – all changes will be seen only by you.

Personal tabs can be accessed anytime from any device, even offline.
Learn more »
Give kudos to tab author, rate the tab!
1 2 3 4 5
comments
print report bad tab
guest
Wanna post a correction for this tab? Suggest correction