Oops, an error
Loading. Please wait.

Septiembre tab

14 views 1 this week
no commentswrite comment
1 2 3 4 5
3 more votes to show rating
add to favorites
×
Save as Personal and add changes to this tab that will be seen only by you. Learn more ›
×
You can save this tab as Personal to edit and correct it or add notes. All changes will be seen only by you. Learn more »
launch autoscroll
font size
0
reset
how to read this tab
guitar tuner
edit
Autoscroll
slow
fast
+/-
esc
set tempo
stop
ACORDES:
e|-----X-----X-----X----|
B|-----X-----X-----X----|
G|-----X-----11----9----|
D|-----9-----11----9----|
A|-----9-----9-----7----|
E|-----7-----X-----X----|
       B5   F#5    E5

* = palm mute
-------------------------

INTRO:
e|---------------|------------------------|
B|------------X7-|------------------------|
G|---------------|------------------------|
D|---------------|------------------------|
A|-----999-777-7-|-----999-777-7--6-7-6---|
E|-777-----------|-777------------------7-|

           B5                  F#5
Es un nuevo día otra vez miro al cielo
         E5             F#5
Aún estoy solo pero tengo,
           B5                 F#5
Ganas de respirar sentirme vivo,
                E5                    F#5
Aunque no haga lo que quiera y no tenga lo que espero.

e|---------------|
B|------------X4-|
G|---------------|
D|---------------|
A|-----999-777-7-|
E|-777-----------|

e|----------------------------------------------|
B|----------------------------------------------|
G|---------------------------9-----9----9-------|
D|----9-----9----9--------99-9-999-9-99-9-99999-|
A|-99-9-999-9-99-9-99999--77-7-777-7-77-7-77777-|
E|-77-7-777-7-77-7-77777------------------------|
   **   ***   **   *****  **   ***   **   *****
e|---------------------------------------------------------------------|
B|---------------------------------------------------------------------|
G|------11--------11------11----------------9-----9--------11----------|
D|-1111-11-111111-11-1111-11-1111111111--99-9-999-9-111111-11-11111111-|
A|-9-9--9--9-9-9--9--9-9--9--9-9-9-9-9---77-7-777-7-9-9-9--9--9-9-9-9--|
E|---------------------------------------------------------------------|
   * *     * * *     * *     * * * * *   **   ***   * * *     * * * *
(Guitarra acustica que tambien acompaña el verso)
e|--------2-------------2-------------0-------------2-----|
B|----------4-------------2-------------0-------------2---|
G|-----4------4-------------3-------------1-------------3-|
D|---4---------------4--------------2-------------4-------|
A|-2---------------4--------------2-------------4---------|
E|---------------2--------------0-------------2-----------|

    B5               F#5
Mis noches se hunden en llanto,
    E5             F#5
Y mis días son una luz de espera,
B5          F#5          E5             F#5
Me rehúso a aceptar pero no hay una salida,
B5          F#5          E5             F#5
No sé si te pueda amar, odiar.

e|------------------------------------------------------------------------|
B|------------------------------------------------------------------------|
G|----------------99-999-999-999-1111-111111-111111-111111-99-999-999-999-|
D|-99-999-999-999-99-999-999-999-1111-111111-111111-111111-99-999-999-999-|
A|-99-999-999-999-77-777-777-777-9-9--9-9-9--9-9-9--9-9-9--77-777-777-777-|
E|-77-777-777-777---------------------------------------------------------|

e|--------------------------------------------------------|
B|--------------------------------------------------------|
G|--------9-11---9-11---9-11---13-11---9-11---9-11---9-11-|
D|-9------X-X----X-X----X-X----X--X----X-X----X-X----X-X--|
A|-9------7-9----7-9----7-9----11-9----7-9----7-9----7-9--|
E|-7------------------------------------------------------|

e|---------------|------------------------|
B|------------X7-|------------------------|
G|---------------|------------------------|
D|---------------|------------------------|
A|-----999-777-7-|-----999-777-7--6-7-6---|
E|-777-----------|-777------------------7-|
        B5               F#5
Mis miradas son lágrimas que se agotan,
        E5             F#5
Con cada instante de tiempo,
B5          F#5          E5             F#5
Un intento más se convierte,
B5          F#5          E5
En una frustración  peor.

e|-------------------|
B|----------------X4-|
G|-------------------|
D|-------------------|
A|-----999-7777777-7-|
E|-777---------------|

e|----------------------------------------------|
B|----------------------------------------------|
G|----------------------------------------------|
D|----9-----9----9-----------9----9----9-9--9-9-|
A|-99-9-999-9-99-9-99999--99-9-99-9-99-9-9--9-9-|
E|-77-7-777-7-77-7-77777--77-7-77-7-77-7-7--7-7-|
   **   ***   **   *****  **   **   **
e|-----------------------------------------------------------|
B|-----------------------------------------------------------|
G|----9-----9----9--------------11------11------11-11--11-11-|
D|-99-9-999-9-99-9-99999---1111-11-1111-11-1111-11-11--11-11-|
A|-77-7-777-7-77-7-77777---9-9--9--9-9--9--9-9--9--9---9--9--|
E|-----------------------------------------------------------|
   **   ***   **   *****   * *     * *     * *
(Piano)
e|--------13-12-------13----10-12-13-12-10-9-10-12-14-12-|
B|-12-----------12---------------------------------------|
G|-------------------------------------------------------|
D|-------------------------------------------------------|
A|-------------------------------------------------------|
E|-------------------------------------------------------|

"El final me lleva por un camino..."
e|--------------------------------------------------------------------x3--|
B|------------------------------------------------------------------------|
G|----------------99-999-999-999-1111-111111-111111-111111-99-999-999-999-|
D|-99-999-999-999-99-999-999-999-1111-111111-111111-111111-99-999-999-999-|
A|-99-999-999-999-77-777-777-777-9-9--9-9-9--9-9-9--9-9-9--77-777-777-777-|
E|-77-777-777-777---------------------------------------------------------|

e|---------|
B|---------|
G|---------|
D|-9-------|
A|-9-------|
E|-7-------|

DUDAS, COMENTARIOS, CORRECCIONES Y OTRAS CANCIONES DE GRUPOS COLOMBIANOS
ESCRINME AL CORREO ROCKANDRES182@

            
            
Suggest correction
Creating personal tab
Creating personal tab
You can edit any tab online and save it as your Personal.

You can edit, replace or remove any tab part or add personal notes – all changes will be seen only by you.

Personal tabs can be accessed anytime from any device, even offline.
Learn more »
Give kudos to tab author, rate the tab!
1 2 3 4 5
comments
print report bad tab
guest
Wanna post a correction for this tab? Suggest correction