Oops, an error
Loading. Please wait.

Sin Dudar tab

17 views 1 this week
no commentswrite comment
1 2 3 4 5
3 more votes to show rating
add to favorites
×
Save as Personal and add changes to this tab that will be seen only by you. Learn more ›
×
You can save this tab as Personal to edit and correct it or add notes. All changes will be seen only by you. Learn more »
launch autoscroll
font size
0
reset
how to read this tab
guitar tuner
edit
Autoscroll
slow
fast
+/-
esc
set tempo
stop
E|------------------------------|
B|------------------------------|
G|-77777777777777---------------|
D|-77777777777777---------------|
A|-55555555555555-(PICK SLIDE)--|
E|------------------------------|

E|-----------------------------------|
B|-----------------------------------|
G|-----------------------77-6--66-7--|
D|-----------------------77-6--66-7--|
A|-9-7-6-7-6-44-------6--55-4--44-5--|
E|--------------4f^-4----------------|

D5                             C#5
Hoy despues de noches sin dormir
                         D5
Teniendo siempre que fingir
                         E5
Con que las cosas estan bien y continuar
D5                       C#5
Sin causa alguna, sin mirar
                       D5
Estando ciego al caminar
             E5
Paso a paso entiendo

RIFF 1:
E|----------------------------|
B|----------------------------|
G|-11111111111111--9-119-7~~--|
D|-X-X-X-X-X-X-X---X-X-X-X----|
A|-9-9-9-9-9-9-9---7-9-7-5~~--|
E|----------------------------|

D5            Riff 1
Que tengo que vivir
D5            Riff 1
Sintiendo mas por mi

D5                         C#5
Soy conciente que debo seguir
                          D5
Mirando atrás quiero partir
                   E5
Engañando al corazón ya sin latir
D5                     C#5
Renunciando a lo que fuí
                        D5
Mis ojos sienten mi dolor Lagrimas negras


E5 D5 C#5
Entregar
E5 D5 C#5
sin dudar
E5 D5 C#5
lo que soy
E5
No equivocarme mas

E|-------------------------------------------------|
B|-------------------------------------------------|
G|-7~-6/777----6/76-7777----7/96-7777----6/76-777--|
D|-X--X/XXX----X/XX-XXXX----X/XX-XXXX----X/XX-XXX--|
A|-5~-4/555----4/54-5555----5/74-5555----4/54-555--|
E|-------------------------------------------------|

D5
No dar un paso atrás
C#5
No negar mi verdad


RIFF 1:
E|----------------------------|
B|----------------------------|
G|-11111111111111--9-119-7~~--|
D|-X-X-X-X-X-X-X---X-X-X-X----|
A|-9-9-9-9-9-9-9---7-9-7-5~~--|
E|----------------------------|

D5            Riff 1
Que tengo que vivir
D5            Riff 1
Sintiendo mas por mi

E|-----------------X2-|----------------------|
B|--------------------|----------------------|
G|-7-7-7-6-7-7/9-7----|--9-9-9-7-9-9/119-----|
D|-X-X-X-X-X-X/X-X----|--X-X-X-X-X-X/X-X-----|
A|-5-5-5-4-5-5/7-5555-|--7-7-7-5-7-7/9-7777--|
E|--------------------|----------------------|
                  ***                  ***
E|-----------------------------------------------|
B|-----------------------------------------------|
G|-11-11-11-11-21-12-12/14--77779999111111121212-|
D|-X--X--X--X--X--X--X-/X---XXXXXXXXX-X-X-X-X-X--|
A|-9--9--9--9--10-10-10/12--555577779-9-9-101010-|
E|-----------------------------------------------|
                            ************

D5
Na na nana na na na
C#5
Na na nana na na na

ACORDES:
E|-----X-----X-----X-----| ~~ = let ring (dejar sonado)
B|-----X-----X-----X-----| f^ = full (hacia abajo)
G|-----6-----7-----9-----|  X = nota muerta
D|-----6-----7-----9-----|  / = slide
A|-----4-----5-----7-----|  * = palm mute
E|-----X-----X-----X-----|
       C#5   D5    E5

            
            
Suggest correction
Creating personal tab
Creating personal tab
You can edit any tab online and save it as your Personal.

You can edit, replace or remove any tab part or add personal notes – all changes will be seen only by you.

Personal tabs can be accessed anytime from any device, even offline.
Learn more »
Give kudos to tab author, rate the tab!
1 2 3 4 5
comments
print report bad tab
guest
Wanna post a correction for this tab? Suggest correction