Oops, an error
Loading. Please wait.

Vestido De Cristal tab

65 views 1 this week
no commentswrite comment
1 2 3 4 5
3 more votes to show rating
add to favorites
×
Save as Personal and add changes to this tab that will be seen only by you. Learn more ›
×
You can save this tab as Personal to edit and correct it or add notes. All changes will be seen only by you. Learn more »
launch autoscroll
font size
0
reset
how to read this tab
guitar tuner
edit
Autoscroll
slow
fast
+/-
esc
set tempo
stop
E|-------------------------------|
B|-------------------------------|
G|-------------------------------|
D|---------------------0-0-1---0-|
A|-2----2-3-3---2-3-3------------|
E|-0-----------------------------|

E|----------|-----------------|---------0-------|--------------|
B|----------|---3-------3-----|---1-------1-----|-----3------3-|
G|----0---0-|-----0-------0---|-----2-------2---|---2------2---|
D|----------|-------2-------2-|-------2-------2-|-0------0-----| x3
A|----------|-3-------3-------|-0---------------|--------------|
E|--0---0---|-----------------|-----------------|--------------|
     Em            C                  Am               D
E|-------------|
B|-------------|
G|---------5---|
D|-2--5555-5---|
A|-2--3333-3---|
E|-0-----------|
     |-pm-|

        E5           C5
Si hace falta que le mire
      A5       D5
a los ojos miraré
           B5
ya hoy.... creo que es tiempo
 E5                 C5
ojos negros piel de hielo
                       A5
voz de fuego siento al verle
D5
pero sin miedo

E|-------------------|
B|-7-----------------|
G|---7---------------|
D|-----9-------------|
A|-------9---10h9-7--|
E|-------------------|

CORO

E5         D5             B5
olvidarle me da igual no estoy mintiendo
     C5           D5-D5
ni ignoro su juego
E5           D5
si su vestido de cristal
   B5
se quiebra en silencio

E|-------------|
B|----------7f-|
G|--------7----|
D|------9------|
A|-9-10--------|
E|-------------|

E|----------|-----------------|---------0-------|--------------|
B|----------|---3-------3-----|---1-------1-----|-----3------3-|
G|----0---0-|-----0-------0---|-----2-------2---|---2------2---|
D|----------|-------2-------2-|-------2-------2-|-0------0-----| x3
A|----------|-3-------3-------|-0---------------|--------------|
E|--0---0---|-----------------|-----------------|--------------|
     Em            C                  Am               D

   E5                    C5
me ha sorprendido con el llanto
        A5               D5
en mis manos muriendo de sed
B5    E5         C5
yyyyy ahora le dire porque no he vuelto
   A5          D5        B5
a esconderme bajo su piel

CORO

E5        D5             B5
olvidarle me da igual no estoy mintiendo
     C5           C5-D5
ni ignoro su juego
E5           D5
si su vestido de cristal
   B5                 C5
se quiebra en silencio
                   E5
que debil es su disfraz

Solo:
E|----------------------------------------------|
B|-10s12-10s12-10s12-10----10-12-10-12-10-12-10-|
G|----------------------12----------------------|
D|----------------------------------------------|
A|----------------------------------------------|
E|----------------------------------------------|

E|---------------------------------|
B|---------12-13-15-12f--15-14-12v-|
G|11-12-14-------------------------|
D|---------------------------------|
A|---------------------------------|
E|---------------------------------|

E|-17s19-17s19-17s19-17---------------------------|
B|-----------------------17-19-20f20f--20-19-17v--|
G|------------------------------------------------|
D|------------------------------------------------|
A|------------------------------------------------|
E|------------------------------------------------|

E|-19-17-15-15h17-14-15-14-21f--17f-17f-17f-17f-|
B|----------------------------------------------|
G|----------------------------------------------|
D|----------------------------------------------|
A|----------------------------------------------|
E|----------------------------------------------|

E|-----------------------------------------------------------|
B|-----------------------------------------------------------|
G|----7s9s7---7~~7s9s7------7s9s7---7~~7s9s7---9s119-11-9--7-|
D|-2~~X-X-X---7~~X-X-X---7~~X-X-X---7~~X-X-X---X-X-X-x--X--X-| X2
A|-2~~5s7s5---5~~5s7s5---7~~5s7s5---5~~5s7s5---7s9-7-9--7--5-|
E|-0~~-------------------5~~---------------------------------|

Em5            D5
Ojos de negros piel de hielo
C5              D5
voz de fuego oohhh
Em5      D5 C5           D5
No olvides    Ya siento miedo


E5        D5             B5
olvidarle me da igual no estoy mintiendo
     C5           C5-D5
ni ignoro su juego
E5           D5
si su vestido de cristal
   B5                 C5
se quiebra en silencio
                   E5
que debil es su disfraz

ohhhhh ohhhhhh ohhhhhhh
(Em    C     Am    D ) X2


ACORDES:
E|----X----X----X----X----X----X----0----0-----0----2----|
B|----X----X----X----X----X----X----0----3-----1----3----|
G|----7----X----7----X----5----X----0----0-----2----2----|
D|----7----7----7----9----5----2----2----2-----2----0----|
A|----9----7----5----9----3----2----2----3-----0---------|
E|----X----5----X----7----X----0----0--------------------|
      E5   A5   D5   B5   C5   Em5  Em   C    Am    D

p = pull off
f = full
s = slide
pm= palm mute
~ = let ring (dejar sonando)

            
            
Suggest correction
Creating personal tab
Creating personal tab
You can edit any tab online and save it as your Personal.

You can edit, replace or remove any tab part or add personal notes – all changes will be seen only by you.

Personal tabs can be accessed anytime from any device, even offline.
Learn more »
Give kudos to tab author, rate the tab!
1 2 3 4 5
comments
print report bad tab
guest
Wanna post a correction for this tab? Suggest correction