Oops, an error
Loading. Please wait.

Monster You Made Tab

version 4
version 4

Whole song

  • This tab is the full song and has corrections in the intro, chorus and interlude.
  • I have submitted one already under the wrong name by accident.

Interactive

205 views 1 this week
no commentswrite comment
1 2 3 4 5
2 more votes to show rating
add to favorites
×
Save as Personal and add changes to this tab that will be seen only by you. Learn more ›
×
You can save this tab as Personal to edit and correct it or add notes. All changes will be seen only by you. Learn more »
save as personal
new!
launch autoscroll
font size
0
reset
how to read this tab
guitar tuner
Autoscroll
slow
fast
+/-
esc
set tempo
stop
Author
Difficulty
Tuning
novice
C# G# C# F# A# D#
About this tab version
This tab is the full song and has corrections in the intro, chorus and interlude. Was this info helpful? Yes No
-------------------------------------------------------------------------------
                             Monster You Made - Pop Evil
-------------------------------------------------------------------------------
Tabbed by: kkkatelyn
E-mail:

Tuning: Drop D down 1/2 step- Drop C#

Intro
Eb|-----------------------------------|
Bb|-----------------------------------|
F#|-----------------------------------|
C#|-----2-0-------0-------9-------9---|  RPT 6X
G#|---0-----------------7---7---7---7-|
C#|-4-------0-------0-7-------6-------|

Verse
Eb|---------------------------------|
Bb|---------------------------------|
F#|---------------------------------|
C#|---------0-----------------------|
G#|-----------------2-2-2-2-2-2-2-2-|
C#|-0---------0-----2-2-2-2-2-2-2-2-|
                    x x x x
Chorus
Eb|---------------------------------|
Bb|---------------------------------|
F#|---------7-7-7-7---------9-9-9-9-|
C#|-4-4-4-4-7-7-7-7-7-7-7-7-9-9-9-9-|   RPT 2X
G#|-4-4-4-4-5-5-5-5-7-7-7-7-7-7-7-7-|
C#|-4-4-4-4---------7-7-7-7---------|

Eb|------------------------------|
Bb|------------------------------|
F#|--------7-7----------9-9-9-9--|
C#|-4-4----7-7----7-7---9-9-9-9--|
G#|-4-4----5-5----7-7---7-7-7-7--|
C#|-4-4-----------7-7------------|

Eb|---------------------------------|
Bb|---------------------------------|
F#|---------7-7-7-7-----------------|
C#|-4-4-4-4-7-7-7-7-7-7-7-7---------|
G#|-4-4-4-4-5-5-5-5-7-7-7-7-7-5-4-0-|
C#|-4-4-4-4---------7-7-7-7---------|

RPT Intro

Verse 2
Eb|---------------------------------|
Bb|---------------------------------|
F#|---------------------------------|
C#|--------0------------------------|
G#|-----------------2-2-2-2-2-2-2-2-|
C#|-0-------0----0--2-2-2-2-2-2-2-2-|
                    X X X X
RPT Chorus

Interlude
Eb|-----------------------------------------------------------------|
Bb|-----------------------------------------------------------------|
F#|-----------------------------------------------------------------|
C#|-7-7-7-7-7-7-7-7-7-7-7-7-7-7-7-7---------------------------------|
G#|-5-5-5-5-5-5-5-5-4-4-4-4-4-4-4-4-4-4-4-4-4-4-4-4-2-2-2-2-2-2-2-2-|
C#|---------------------------------4-4-4-4-4-4-4-4-2-2-2-2-2-2-2-2-|

Eb|-----------------------------------------------------------------|
Bb|-----------------------------------------------------------------|
F#|-----------------------------------------------------------------|
C#|-7-7-7-7-7-7-7-7-7-7-7-7-7-7-7-7---------------------------------|
G#|-5-5-5-5-5-5-5-5-4-4-4-4-4-4-4-4-4-4-4-4-4-4-4-4-2-2-2-2-2-2-2-2-|
C#|---------------------------------4-4-4-4-4-4-4-4-2-2-2-2-2-2-2-2-|
                                                    X X X X X 
RPT Intro (slightly different)
Eb|---------------------------------------------------------------|
Bb|---------------------------------------------------------------|
F#|---------------------------------------------------------------|
C#|-----2-0-------0------9-------9-------2-0-------0-------9--(9)-|
G#|---0----------------7---7---7---7---0-----------------7---7(7)-|
C#|-4-------0------0-7-------6-------4-------0-------0-7-------6--|

RPT Chorus (slightly different)
Eb|---------------------------------|
Bb|---------------------------------|
F#|---------7-7-7-7---------9-9-9-9-|
C#|-4-4-4-4-7-7-7-7-7-7-7-7-9-9-9-9-|   RPT 2X
G#|-4-4-4-4-5-5-5-5-7-7-7-7-7-7-7-7-|
C#|-4-4-4-4---------7-7-7-7---------|

Eb|-------------------------------|
Bb|-------------------------------|
F#|--------7-7------------9-9-9-9-|
C#|-4-4----7-7----7-7-7-7-9-9-9-9-|
G#|-4-4----5-5----7-7-7-7-7-7-7-7-|
C#|-4-4-----------7-7-7-7---------|

Eb|---------------------------------|
Bb|---------------------------------|
F#|---------7-7-7-7---------9-9-9-9-|
C#|-4-4-4-4-7-7-7-7-7-7-7-7-9-9-9-9-|   RPT 4X
G#|-4-4-4-4-5-5-5-5-7-7-7-7-7-7-7-7-|
C#|-4-4-4-4---------7-7-7-7---------|

Eb|---------------------------------|
Bb|---------------------------------|
F#|---------7-7-7-7-----------------|
C#|-4-4-4-4-7-7-7-7-7-7-7-7---------|
G#|-4-4-4-4-5-5-5-5-7-7-7-7-7-5-4-0-|
C#|-4-4-4-4---------7-7-7-7---------|

Outro
Eb|-------------------------------------------|
Bb|-------------------------------------------|
F#|-------------------------------------------|
C#|-----2-0-------------9-------9-------2-0---|
G#|---0---------------7---7---7---7---0-------|
C#|-4-------0-------7-------6-------4-------0-|

************************************

| /   slide up
| \   slide down
| h   hammer-on
| p   pull-off
| ~   vibrato
| +   harmonic
| x   Mute note
| b   Bend
| pb  Pre-bend
| br  Bend release
| pbr Pre-bend release
| brb Bend release bend

************************************
Suggest correction
Give kudos to tab author, rate the tab!
1 2 3 4 5
comments
print report bad tab
guest
You may want to rate the tab now too:
select rating
Wanna post a correction for this tab? Suggest correction