Oops, an error
Loading. Please wait.

Take It All tab

1,471 views 30 this week
no commentswrite comment
1 2 3 4 5
x 5
add to favorites
×
Save as Personal and add changes to this tab that will be seen only by you. Learn more ›
×
You can save this tab as Personal to edit and correct it or add notes. All changes will be seen only by you. Learn more »
launch autoscroll
font size
0
reset
how to read this tab
guitar tuner
edit
Autoscroll
slow
fast
+/-
esc
set tempo
stop
I noticed there weren't many quality Pop Evil tabs on the site, so I spent my afternoon tabbing the whole Up 
album. Eventually, I will do an "Album" tab with all the songs in order, lined up for an easy single 
play-through. 

All timing is based off the Official Music Video on YouTube, so timing compared to the iTunes versions are a 
bit off. If you have any comments/corrections, feel to write below or send an email to Slowermrborat@live.com

Happy playing!


[Intro/Verse]

 Guitar 1
 0:00 – 0:34
E||----------------------------------------------------------------------------||             
B||----------------------------------------------------------------------------|| 
G||----------------------------------------------------------------------------||             
D||--------3-3h5p3--------------------------------3-3h5p3--------------3^v^v---||   <-4x         
A||----5-----------5p3p0h5------------------5------------5p3p0h5---------------||             
D||------0------------------0---3^-3^-3^------0----------------------0---------||      
 

[Pre-Chorus]

 Guitar 1/2
 0:34 – 0:42                                    0:44 – 0:49
E||----------------------||           ||--------------------------------||            
B||----------------------||           ||--------------------------------||
G||----------------------||           ||--------------------------------||
D||----------------------||   <-3x    ||----0----x--3---0----x--3---0---||
A||----5-----------------||           ||----0----x--3---0----x--3---0---||
D||------0---3^-3^-3^----||           ||----0----x--3---0----x--3---0---||


[Chorus]

Guitar 1/2
0:52 – 1:08

E||---------------------------------------------------------------------------------|             
B||---------------------------------------------------------------------------------|
G||---------------------7-7-7-7-5/-7-7-7-7-7-7-7---------------------7-5-7--7-5-7---|             
D||---3-3-3-3--5-5-5-5--7-7-7-7-5/-7-7-7-7-7-7-7---3-3-3-3--5-5-5-5--7-5-7--7-5-7---|
A||---3-3-3-3--5-5-5-5--5-5-5-5-3/-5-5-5-5-5-5-5---3-3-3-3--5-5-5-5--5-3-5--5-3-5---|             
D||---3-3-3-3--5-5-5-5-----------------------------3-3-3-3--5-5-5-5-----------------|

E||------------------------------------------------------------------||             
B||------------------------------------------------------------------||
G||---------------------7-7-7-7-5/-7-7-7-7-7-7-7---------------------||   
D||---3-3-3-3--5-5-5-5--7-7-7-7-5/-7-7-7-7-7-7-7---3-3-3-3--5-5-5-5--||
A||---3-3-3-3--5-5-5-5--5-5-5-5-3/-5-5-5-5-5-5-5---3-3-3-3--5-5-5-5--||           
D||---3-3-3-3--5-5-5-5-----------------------------3-3-3-3--5-5-5-5--||

[Verse]

 Guitar 1
 1:10 – 1:25
E||----------------------------------------------------------------------------||             
B||----------------------------------------------------------------------------|| 
G||----------------------------------------------------------------------------||             
D||--------3-3h5p3--------------------------------3-3h5p3--------------3^v^v---||   <-2x         
A||----5-----------5p3p0h5-------------------5------------5p3p0h5--------------||             
D||-------0------------------0---3^-3^-3^------0----------------------0--------||       


[Pre-Chorus]

 Guitar 1/2
 1:25 – 1:33                                    1:36 – 1:41
E||----------------------||           ||--------------------------------||            
B||----------------------||           ||--------------------------------||
G||----------------------||           ||---------------------x----------||
D||----------------------||   <-3x    ||----0----x--3---0----x--3---0---||
A||----5-----------------||           ||----0----x--3---0----x--3---0---||
D||------0---3^-3^-3^----||           ||----0----x--3---0----x--3---0---||


[Chorus]

 Guitar 1/2
 1:45 – 2:00
E||---------------------------------------------------------------------------------|             
B||---------------------------------------------------------------------------------|
G||---------------------7-7-7-7-5/-7-7-7-7-7-7-7---------------------7-5-7--7-5-7---|             
D||---3-3-3-3--5-5-5-5--7-7-7-7-5/-7-7-7-7-7-7-7---3-3-3-3--5-5-5-5--7-5-7--7-5-7---|
A||---3-3-3-3--5-5-5-5--5-5-5-5-3/-5-5-5-5-5-5-5---3-3-3-3--5-5-5-5--5-3-5--5-3-5---|             
D||---3-3-3-3--5-5-5-5-----------------------------3-3-3-3--5-5-5-5-----------------|

E||------------------------------------------------------------------||             
B||------------------------------------------------------------------||
G||---------------------7-7-7-7-5/-7-7-7-7-7-7-7---------------------||            
D||---3-3-3-3--5-5-5-5--7-7-7-7-5/-7-7-7-7-7-7-7---3-3-3-3--5-5-5-5--||
A||---3-3-3-3--5-5-5-5--5-5-5-5-3/-5-5-5-5-5-5-5---3-3-3-3--5-5-5-5--||             
D||---3-3-3-3--5-5-5-5-----------------------------3-3-3-3--5-5-5-5--||

[Interlude]

 Guitar 1/2
 2:02 – 2:20
E||---------------------------------------------------------------------------------|             
B||---------------------------------------------------------------------------------|
G||---------------------7-7-7-7-5/-7-7-7-7-7-7-7---------------------7-5-7--7-5-7---|             
D||---3-3-3-3--5-5-5-5--7-7-7-7-5/-7-7-7-7-7-7-7---3-3-3-3--5-5-5-5--7-5-7--7-5-7---| <-2x
A||---3-3-3-3--5-5-5-5--5-5-5-5-3/-5-5-5-5-5-5-5---3-3-3-3--5-5-5-5--5-3-5--5-3-5---|             
D||---3-3-3-3--5-5-5-5-----------------------------3-3-3-3--5-5-5-5-----------------|


[Outro]

 Guitar 1/2
 2:35 – 3:18
E||---------------------------------------------------------------------------------|             
B||---------------------------------------------------------------------------------|
G||---------------------7-7-7-7-5/-7-7-7-7-7-7-7---------------------7-5-7--7-5-7---|             
D||---3-3-3-3--5-5-5-5--7-7-7-7-5/-7-7-7-7-7-7-7---3-3-3-3--5-5-5-5--7-5-7--7-5-7---|  <-4x
A||---3-3-3-3--5-5-5-5--5-5-5-5-3/-5-5-5-5-5-5-5---3-3-3-3--5-5-5-5--5-3-5--5-3-5---|             
D||---3-3-3-3--5-5-5-5-----------------------------3-3-3-3--5-5-5-5-----------------|



************************************

| x  Dead note
| h  Hammer-on
| p  Pull-off
| /  Slide up

************************************

            
            
Suggest correction
Creating personal tab
Creating personal tab
You can edit any tab online and save it as your Personal.

You can edit, replace or remove any tab part or add personal notes – all changes will be seen only by you.

Personal tabs can be accessed anytime from any device, even offline.
Learn more »
comments
print report bad tab
guest
You may want to rate the tab now too:
select rating
Wanna post a correction for this tab? Suggest correction