Oops, an error
Loading. Please wait.

Trenches Tab

version 1
version 1

Whole song

32,166 views 69 this week
10 commentsread comments
1 2 3 4 5
x 20
add to favorites
launch autoscroll
font size
0
reset
how to read this tab
guitar tuner
Autoscroll
slow
fast
+/-
esc
set tempo
stop
Help us to improve Ultimate-Guitar.com Take our survey!
×
Author
-------------------------------------------------------------------------------
                             Trenches - Pop Evil
-------------------------------------------------------------------------------
Tabbed by: The Guardian
E-mail:theguardian_1@yahoo.com

Tuning: CGCFAD
I don't own or claim to own any of this material.
 All Rights reserved to Pop Evil and their record label.
Changed the tuning as it was pointed out that I was wrong on the first one.
this sounds much better


NOTE**** I looked everywhere for this tab and 
could not find even a starting off point for it.
 I really only found 1 YouTube video of a cover 
and his didn't seem correct. I am not saying this
 is 100% but I do hope it will give you a good 
start point and then you can correct me as I am
 trying to tab this by ear. Any corrections or 
comments are desired. so here we go. I am only 
going to do the part that Nick Fuelling plays. Enjoy!!

I am playing this with Distortion/some reverb. 
0:00 - 0:23

[Intro]
D|-----------------------------------------------|
A|-----------------------------------------------|
F|--------4-4-4-4-4------------------------------|
C|--2-0-------------4*-----2-0-----7p5--7p5--5---|  
G|--2-0--------------------2-0-----7p5--7p5--5---|
C|--2-0--------------------2-0-----7p5--7p5--5---|(x5)
        I find if you can make the pitch harmonic and then sligtly bend it,
                you get a little more accurate sound.

0:24-0:33
[Pre-Verse]
D|--------------------------------------------------|
A|--------------------------------------------------|
F|--------------------------------------------------|
C|--2-0-----------1-0-----2-0-----------------------|     
G|--2-0----0-0-0--1-0-----2-0---0-0----3/7----3/7---|
C|--2-0----0-0-0--1-0-----2-0---0-0-----------------|(x2)
           x x x  x             x x

0:34-0:43
[Verse 1]
D|-----------------------------------------------|
A|-----------------------------------------------|
F|--------4-4-4-4-4------------------------------|
C|--2-0-------------4*-----2-0-----7p5--7p5--5---|  
G|--2-0--------------------2-0-----7p5--7p5--5---|
C|--2-0--------------------2-0-----7p5--7p5--5---|(x2)

0:43 -0:50
[Pre-Chorus]
D|--------------------|
A|--------------------|
F|---------16~~-------|
C|---13~~-------17~~--|  
G|--------------------|
C|--------------------|(x2)
                This little section is played over the verse. So only the last 7 sec
                        of the verse contains this lick. I use a little bit of Wah to
                        help kinda bring it out a bit better.

0:50-1:11
[Chorus]
D|--------------------------------------------------------------------------|
A|--------------------------------------------------------------------------|
F|--------------------------------------------------------------------------|
C|----9-9-9-9-9-9-9-9-9-9-9-9-9-9-9-9-9-/-7-7-7-7-7-7-7-7/-12-12-12-12-12-12|
G|----7-7-7-7-7-7-7-7-7-7-7-7-7-7-7-7-7-/-5-5-5-5-5-5-5-5/-10-10-10-10-10-10|
C|--------------------------------------------------------------------------|

D|--------------------------------------------------------------------------|
A|--------------------------------------------------------------------------|
F|--------------------------------------------------------------------------|
C|----12-12-/-17-17-17-17-17-17-17-17-17-17-17-17-17-17-17-17/-12-12-12-12--|
G|----10-10-/-15-15-15-15-15-15-15-15-15-15-15-15-15-15-15-15/-10-10-10-10--|
C|--------------------------------------------------------------------------|

D|-------------------------------|
A|-------------------------------|
F|-------------------------------|
C|-----12-12-/-7-7-7-7-7-7-7-7---|  
G|-----10-10-/-5-5-5-5-5-5-5-5---|
C|-------------------------------|(x2)
                The timing may be a little off so just listen for it and you
                        should pick it right up.

1:12-1:20
[Post-Chorus]
D|--------------|
A|--------------|
F|--------------|
C|--------------|   
G|---2---2------|
C|---2---2------|(x3)

1:21-1:31
[Re-Intro]
D|-----------------------------------------------|
A|-----------------------------------------------|
F|--------4-4-4-4-4------------------------------|
C|--2-0-------------4*-----2-0-----7p5--7p5--5---|  
G|--2-0--------------------2-0-----7p5--7p5--5---|
C|--2-0--------------------2-0-----7p5--7p5--5---|(x2)

1:32-1:40
Pre-Verse
D|--------------------------------------------------|
A|--------------------------------------------------|
F|--------------------------------------------------|
C|--2-0-----------1-0-----2-0-----------------------|     
G|--2-0----0-0-0--1-0-----2-0---0-0----3/7----3/7---|
C|--2-0----0-0-0--1-0-----2-0---0-0-----------------|(x2)
           x x x  x             x x

1:41-1:50
[Verse 2]
D|-----------------------------------------------|
A|-----------------------------------------------|
F|--------4-4-4-4-4------------------------------|
C|--2-0-------------4*-----2-0-----7p5--7p5--5---|  
G|--2-0--------------------2-0-----7p5--7p5--5---|
C|--2-0--------------------2-0-----7p5--7p5--5---|(x2)

1:51-1:57
[Pre-Chorus]
D|--------------------|
A|--------------------|
F|-------16~~---------|
C|---13~~-----17~~----|  
G|--------------------|
C|--------------------|(x2)

1:57-2:18
[Chorus]
D|--------------------------------------------------------------------------|
A|--------------------------------------------------------------------------|
F|--------------------------------------------------------------------------|
C|----9-9-9-9-9-9-9-9-9-9-9-9-9-9-9-9-9-/-7-7-7-7-7-7-7-7/-12-12-12-12-12-12|
G|----7-7-7-7-7-7-7-7-7-7-7-7-7-7-7-7-7-/-5-5-5-5-5-5-5-5/-10-10-10-10-10-10|
C|--------------------------------------------------------------------------|

D|--------------------------------------------------------------------------|
A|--------------------------------------------------------------------------|
F|--------------------------------------------------------------------------|
C|----12-12-/-17-17-17-17-17-17-17-17-17-17-17-17-17-17-17-17/-12-12-12-12--|
G|----10-10-/-15-15-15-15-15-15-15-15-15-15-15-15-15-15-15-15/-10-10-10-10--|
C|--------------------------------------------------------------------------|

D|-------------------------------|
A|-------------------------------|
F|-------------------------------|
C|-----12-12-/-7-7-7-7-7-7-7-7---|  
G|-----10-10-/-5-5-5-5-5-5-5-5---|
C|-------------------------------|(x2)

2:19-2:25
[Post-Chorus]
D|--------------|
A|--------------|
F|--------------|
C|--------------|   
G|---2---2------|
C|---2---2------|(x3)

2:25-2:28
D|-------------------------------------------------------------------------|
A|-------------------------------------------------------------------------|
F|-------------------------------------------------------------------------|
C|-------------------------------------------------------------------------|
G|-------------------------------------------------------------------------|
C|----PICK  SLIDE ON THIS STRING-------------------------------------------|

2:29-2:42
[Solo]
I am still working on this so I am not going try and tab it yet.

2:47-3:26
[Chorus]
        The beginning of this chorus use a phaser or similar for the first
                few sections.
D|--------------------------------------------------------------------------|
A|--------------------------------------------------------------------------|
F|--------------------------------------------------------------------------|
C|----9-9-9-9-9-9-9-9-9-9-9-9-9-9-9-9-9-/-7-7-7-7-7-7-7-7/-12-12-12-12-12-12|
G|----7-7-7-7-7-7-7-7-7-7-7-7-7-7-7-7-7-/-5-5-5-5-5-5-5-5/-10-10-10-10-10-10|
C|--------------------------------------------------------------------------|

D|--------------------------------------------------------------------------|
A|--------------------------------------------------------------------------|
F|--------------------------------------------------------------------------|
C|----12-12-/-17-17-17-17-17-17-17-17-17-17-17-17-17-17-17-17--12-12-12-12--|
G|----10-10-/-15-15-15-15-15-15-15-15-15-15-15-15-15-15-15-15--10-10-10-10--|
C|--------------------------------------------------------------------------|

D|-------------------------------|
A|-------------------------------|
F|-------------------------------|
C|-----12-12-/-7-7-7-7-7-7-7-7---|  
G|-----10-10-/-5-5-5-5-5-5-5-5---|
C|-------------------------------|(x2)

3:26-3:35
D|--------------------------------------------------------------------------|
A|--------------------------------------------------------------------------|
F|--------------------------------------------------------------------------|
C|--------------------------------------------------------------------------|
G|--2--2-------2---2--------2--2--------2--2--------2-----------------------|
C|--2--2-------2---2--------2--2--------2--2--------2 Whammy--to end--------|

This Should get you really close. The solo doesn't sound 
really hard I just didn't have time to tab it out. Any questions
 or comments please let me know, and if you find something that 
needs to be corrected let me know and I will get it fixed.



************************************

| p  Pull-off
| *  Natural harmonic
| /  Slide up
| ~  Vibrato

************************************
Suggest correction
comments
print report bad tab
10 comments total. Showing first comments.
0 reply
Mikeyrox3162 10 Jun 03, 2013 06:34 PM

Tab is great, can't wait for the solo, and two things, One, it's actually drop c, not drop d, second, that 15-17 note in the chorus doesnt sound right to me, I could be wrong on that one though

0 reply
TheGuardian 71 Jun 22, 2013 02:17 PM

I redid the tab to change the tuning. I still think the 15-17 sounds right but I am going to try some things and see if I got it wrong. Thanks for advice and thanks for telling me about the tuning I have a hard time with tunings for some reason.

0 reply
sab32 10 Jul 02, 2013 11:26 AM

I think the tab is great and to me the 15-17 sounds right but the 10-12 sounds off. Still, awesome tab. Working on the solo?

guest
You may want to rate the tab now too:
select rating
Wanna post a correction for this tab? Suggest correction