Oops, an error
Loading. Please wait.

Alejandro - Te Necesito tab

11 views 1 this week
no commentswrite comment
1 2 3 4 5
3 more votes to show rating
add to favorites
×
Save as Personal and add changes to this tab that will be seen only by you. Learn more ›
×
You can save this tab as Personal to edit and correct it or add notes. All changes will be seen only by you. Learn more »
launch autoscroll
font size
0
reset
how to read this tab
guitar tuner
edit
Autoscroll
slow
fast
+/-
esc
set tempo
stop
Intro:( Do - la - re - Sol )2 veces
      ( Do ) 2 veces
                                            ------*
                                                  *
e-0----------0---------0--0--0-------0--------    *
B-----1----------1---------------1-------1----    *
G---0---0------0---0-----------2---2---2---2--    *
D---------------------------------------------    *
A-3----------3---------3--2--0-------0--------    *
E---------------------------------------------    *     (2 veces)
                                                  *
e--1---------3---1--3----3-----------3--------    *
B-------3---------------------3----------3----    *
G-----2---2----2------------0---0------0---0--    *
D--0------------------------------------------    *
A---------------------------------------------    *
E------------------------3-----------3--------    *
                                                  *
                                            ------*


e-0----------0--------------------------------
B-----1----------1----------------------------
G---0---0------0---0--------------------------
D---------------------------------------------
A-3----------3--------------------------------
E---------------------------------------------


A:)
      DO                         LA  
Ya no se que esta pasando, no se ni que día es hoy
     RE               RE4               SOL
solo se que me encuentro solo en esta vieja habitacion
       DO                        LA
si ni bien te vi llorando, me dijiste adios me voy
       RE         RE4                 SOL
y te fuiste solo bien lejos rompiendo este corazon


B:)
        FA                      DO             SOL
no se quien tuvo la culpa pero eso no importa amor
     FA                      SOL       
solo se te extraño nena y te pido un favor


********************Estribillo**************************

  DO                  FA
Vuelve vuelve, te necesito aqui a mi lado
        LA                    SOL  
ya no importa que paso si olvidamos el pasado
  DO               FA 
Vuelve vuelve, necesito tu mirada 
    LA                         SOL 
necesito que regreses por que sin ti no soy nada

-------------------(Fa-re-Sol;Fa-Sol)--------------------


A:)
Si supieras como duele extrañarte cada tarde

El sol se va poniendo y el corazón me arde

Y mirando a las estrellas una esperanza nace

Y le pido a la luna que regreses a salvarme


B:)
no se quien tuvo la culpa pero eso no importa amor

solo se te extraño nena y te pido un favor

*************************SOLO**************************
ACORDES (Do-la-re-re4-sol)X2 Fa-re-Sol-Fa-Sol

PUNTEO:(18.18.17.15.15.13.11.11.11.10.11.13)X2
       (11.10.23.11.11.11.10.11.13)


********************Estribillo********************((X3))

  RE                  SOL
Vuelve vuelve, te necesito aqui a mi lado
        SI                    LA
ya no importa que paso si olvidamos el pasado
  RE                SOL
Vuelve vuelve, necesito tu mirada 
    SI                         LA
necesito que regreses por que sin ti no soy nada


FINAL:RE-SOL-SI-LA


PABLO BATALLAN
Suggest correction
Creating personal tab
Creating personal tab
You can edit any tab online and save it as your Personal.

You can edit, replace or remove any tab part or add personal notes – all changes will be seen only by you.

Personal tabs can be accessed anytime from any device, even offline.
Learn more »
Give kudos to tab author, rate the tab!
1 2 3 4 5
comments
print report bad tab
guest
Wanna post a correction for this tab? Suggest correction