Oops, an error
Loading. Please wait.

Car tab

by Porches
2,728 views 27 this week
1 commentread comment
1 2 3 4 5
x 5
add to favorites
×
Save as Personal and add changes to this tab that will be seen only by you. Learn more ›
×
You can save this tab as Personal to edit and correct it or add notes. All changes will be seen only by you. Learn more »
launch autoscroll
font size
0
reset
how to read this tab
guitar tuner
edit
Autoscroll
slow
fast
+/-
esc
set tempo
stop
Author
Porches - Car
Track 9 from the album "Pool" (Domino Recording Co 2016)

Tabbed by Isaac Murguia, August 2016.
Originally uploaded to Ultimate-Guitar.com
Contact: www.youtube.com/user/Goadiroth

INTRO:
e|---0---0---0---0-|
B|-5---5---5---5---|
G|-----------------|
D|-----------------|
A|-----------------|
E|-----------------|     "i pulled up the car
                          and i let it run
                          it takes us away from
                          where we are
       oh what a machine
       oh what a machine
       oh what a machine, ohhhh

VERSE A:
e|---0---0---0---0---0---0---0---0-|---0---0---0---0---0---0---0---0-|
B|-5---5---5---5---5---5---5---5---|-6---6---6---6-------------------|
G|---------------------------------|-----------------5---5---5---5---|
D|---------------------------------|---------------------------------|
A|---------------------------------|---------------------------------|
E|---------------------------------|---------------------------------| x2

CHORUS:
  Lead
e|-------------------------------------|-----------------------------------------|
B|-------------------------------------|-----------------------------------------|
G|-------------------------------------|-----------------------------------------|
D|-----10-10-----10-10-----9-9-----9-9-|-----10-10-----10-10-------9-9-------9-9-|
A|-7-7-------7-7-------7-7-----7-7-----|-7-7-------7-7---------------------------|
E|-------------------------------------|---------------------10-10-----10-10-----| x2
  Rhythm
e|-0000-0000--0000-0000-|-0000-0000--0000-0000-|
B|-3333-3333--3333-3333-|-3333-3333--3333-3333-|
G|-5555-5555--4444-4444-|-5555-5555--4444-4444-|
D|-5555-5555--5555-5555-|-5555-5555--5555-5555-|
A|----------------------|----------------------|
E|----------------------|----------------------| x2

BRIDGE A:
e|-------------------------------------------------------|
B|-------------------------------------------------------|
G|-------------------------------------------------------|
D|-----10-10-----10-10-----9-9-----9-9-----5-5-----10-10-|
A|-8-8-------8-8-------7-7-----7-7-----3-3-----8-8-------|
E|-------------------------------------------------------|

BRIDGE B:
  Lead
e|-------------------------|-------------------------|-------------------------------------|
B|-------------------------|-------------------------|-------------------------------------|
G|-------------------------|-------------------------|-------------------------------------|
D|-------14-14-------14-14-|-------14-14-------14-14-|-----10-10-----10-10-----9-9-----9-9-|
A|-12-12-------12-12-------|-12-12-------12-12-------|-8-8-------8-8-------7-7-----7-7-----|
E|-------------------------|-------------------------|-------------------------------------|

e|-------------------|-------------------------|-------------------------|
B|-------------------|-------------------------|-------------------------|
G|-------------------|-------------------------|-------------------------|
D|-----5-5-----10-10-|-------14-14-------14-14-|-------14-14-------14-14-|
A|-3-3-----8-8-------|-12-12-------12-12-------|-12-12-------12-12-------|
E|-------------------|-------------------------|-------------------------|
  Rhythm
e|-0000-0000-0000-0000-|-0000-0000-0000-0000-0000-0000-|-0000-0000-0000-0000-|
B|-1111-1111-1111-1111-|-1111-1111-3333-3333-1111-1111-|-1111-1111-1111-1111-|
G|-2222-2222-2222-2222-|-2222-2222-4444-4444-0000-2222-|-2222-2222-2222-2222-|
D|-2222-2222-2222-2222-|-3333-3333-5555-5555-2222-3333-|-2222-2222-2222-2222-|
A|-0000-0000-0000-0000-|-3333-3333-5555-5555-3333-3333-|-0000-0000-0000-0000-|
E|---------------------|-------------------------------|---------------------|

  "I dig both my heels deep into the fields..."

VERSE B:
  Lead
e|-------------------------------------------------------------|
B|-------------------------------------------------------------|
G|-------------------------------------------------------------|
D|-----5-5-----5-5-----10-10-----10-10-------14-14-------14-14-|
A|-3-3-----3-3-----8-8-------8-8-------12-12-------12-12-------|
E|-------------------------------------------------------------|

e|-------------------------------------------------------|-------------------------|
B|-------------------------------------------------------|-------------------------|
G|-------------------------------------------------------|-------------------------|
D|-----10-10-----10-10-----9-9-----9-9-----5-5-----10-10-|-------14-14-------14-14-|
A|-8-8-------8-8-------7-7-----7-7-----3-3-----8-8-------|-12-12-------12-12-------|
E|-------------------------------------------------------|-------------------------|
  Rhythm
e|-0000-0000-0000-0000-|-0000-0000-0000-0000-0000-0000-0000-0000-|
B|-1111-1111-1111-1111-|-1111-1111-3333-3333-1111-1111-1111-1111-|
G|-0000-2222-2222-2222-|-2222-2222-4444-4444-0000-2222-2222-2222-|
D|-2222-3333-2222-2222-|-3333-3333-5555-5555-2222-3333-2222-2222-|
A|-3333-3333-0000-0000-|-3333-3333-5555-5555-3333-3333-0000-0000-|
E|---------------------|-----------------------------------------|

Repeat CHORUS
*** Drum break
Repeat CHORUS x4 (the outro)

End. Please rate! :D

            
            
Suggest correction
Creating personal tab
Creating personal tab
You can edit any tab online and save it as your Personal.

You can edit, replace or remove any tab part or add personal notes – all changes will be seen only by you.

Personal tabs can be accessed anytime from any device, even offline.
Learn more »
comments
print report bad tab
1 comment total.
0 reply
muhammadbinzainurin 10 Sep 08, 2016 09:05 AM

Thank you!

guest
You may want to rate the tab now too:
select rating
Wanna post a correction for this tab? Suggest correction