Oops, an error
Loading. Please wait.

Arriving Somewhere But Not Here chords

version 2
version 2

Whole song

Interactive

1,612 views 9 this week
no commentswrite comment
1 2 3 4 5
1 last vote to show rating
add to favorites
×
Save as Personal and add changes to this tab that will be seen only by you. Learn more ›
×
You can save this tab as Personal to edit and correct it or add notes. All changes will be seen only by you. Learn more »
launch autoscroll
font size
0
reset
transpose
0
reset
simplify chords
display chords
guitar tuner
backing track
0:00
0:00
edit
Autoscroll
slow
fast
+/-
esc
set tempo
stop
Strumming Are these strumming patterns correct? Yes No
Riff 160 bpm
1
&
2
&
3
&
4
&
Listen
Riff (adapted) 160 bpm
1
&
2
&
3
&
4
&
Listen
Chorus strums 160 bpm
1
&
2
&
3
&
4
&
Listen
Tab at end.

          DAdGBE
Gm11/Bb : x10011



ORDER: I V1 V2 C INT1 V3 C2 INT2 V4 O


[INTRO]
Dm7
(1:23)
Bb | | Dm | |
(Fade in)
Dsus2 |


[VERSE 1]
Bb/D                                               Dsus2
    Never stop the car on a drive in the dark
Bb/D                                               Dsus2
    Never look for the truth in your mother's eyes
Bb/D                                                                    Dm7 Bm7-5/D
    Never trust the sound of rain upon a river rushing through your ears
      Bbmaj7/D              Bb/D *                Dsus2
    Arri   -   ving somewhere     but not here


[VERSE 2]
Bb/D                                          Dsus2
    Did you imagine the final sound as a gun?
Bb/D                                          Dsus2
    Or the shattered windows of a car?
Bb/D                                                                               Dm7 Bm7-5/D
    Did you ever imagine the last thing you'd hear as you're fading out was a song?
      Bbmaj7/F              Bb *              Dsus2
    Arri   -   ving somewhere     but not here



[CHORUS 1]
Gm11/Bb              Cadd9           G
       All my designs     simplified
Gm11/Bb                   Cadd9           G
       And all of my plans     compromised
Gm11/Bb                Cadd9
       All of my dreams     sacrificed


[INTERLUDE 1]
 Bb/D | | | |
Dsus2 | | | |
 Bb/D | | | |
Dsus2 | | | |
 Bb/D | | | |

     Dm7 | | Bm7-5/D | |
Bbmaj7/F | |  Bbmaj7 | |
   Dsus2 | | | |


[VERSE 3]
Bb                                                   Dsus2
    Ever had the feeling you've been here before?
Bb                                                   Dsus2
    Drinking down the poison the way you were taught
Bb                                                                            Dm7 Bm7-5
    Every thought from here on in your life begins and all you knew was wrong?
      Bbmaj7/F               Bb *                    Dsus2
    Arri   -   ving somewhere     but not here


[CHORUS 2]
Gm11/Bb              Cadd9           G
       All my designs     simplified
Gm11/Bb                   Cadd9           G
       And all of my plans     compromised
Gm11/Bb                Cadd9
       All of my dreams


[INTERLUDE 2]
Dm | | | |
   | | | |

(Dorian-esque riff here)
Dm7 | | | |
    | | | |
(add drums)
    | | | |
    | | | |
    | | | |
    | | | |


(breakdown)
(part 1)
Dm | | | |
   | | | |
   | | | |
   | | | |

(part 2)
D Eb D  Eb | Eb D | D Eb D  Eb | Eb D ( Eb ) |
D Eb D  Eb | Eb D | D Eb D     | Fdim        |

(add second guitar riff)
D Eb D  Eb | Eb D | D Eb D  Eb | Eb D ( Eb ) |
D Eb D  Eb | Eb D | D Eb D     | Fdim        |

(part 3)
Dm | | | |
   | | | |
   | | | |
   | | | |


(normality)
Bb/D | | Dsus2 |       |
Bb/D | | Dsus2 |       |
Bb/D | | Dsus2 |       |
Bb/D | | E/D   | Dsus2 |

(add guitar solo)
Bb/D | | Dsus2 |       |
Bb/D | | Dsus2 |       |


(retransition)
Bb | | | |
Dm | | | |
Bb | | | |
Dm | | | |
Bb | | | |
 D | | | |
Bb | | | |
Dm7 | | Bm7-5/D | |
Bbmaj7/D | | | |
Dm | | | |


[VERSE 4]
Bb                                  D/A
    Did you see the red mist block your path?
Bb                                 D/A
    Did the scissors cut a way to your heart?
Bb                                                                  Dm7 Bm7-5/D
    Did you feel the envy for the sons of mothers tearing you apart?
      Bbmaj7/F               Bb *                    D7sus2
    Arri   -   ving somewhere     but not here


[OUTRO] (repeat to fade)
Bb | | | |
Dm | | | |
Bb | | | |
Dm | | | |
Bb | | | |
Dm7 | | Bm7-5/D | |
Bbmaj7/D | | | |
Dm | | | |




Verses:

                    x4                    x4
e|-------0------------||-------0------------||
B|-----------3--------||-----------3--------||
G|-----3---------3--o-||-----2---------2--o-||
D|-0----------------o-||-0----------------o-|| x2
A|--------------------||--------------------||
D|--------------------||--------------------||
   1 + 2 + 3 + 4 +       1 + 2 + 3 + 4 +

                    x4                    x2                    x2
e|-------0------------||-------5------------||-------5------------||
B|-----------3--------||-----------6--------||-----------6--------||
G|-----3---------3--o-||-----5---------5--o-||-----4---------4--o-||
D|-0----------------o-||-0----------------o-||-0----------------o-||
A|--------------------||--------------------||--------------------||
D|--------------------||--------------------||--------------------||
   1 + 2 + 3 + 4 +       1 + 2 + 3 + 4 +       1 + 2 + 3 + 4 +

                    x3
e|-------5------------||-------0---------|
B|-----------6--------||-----------6-----|
G|-----3---------3--o-||-----3---------3-|
D|-0----------------o-||-0---------------|
A|--------------------||-----------------|
D|--------------------||-----------------|
   1 + 2 + 3 + 4 +       1 + 2 + 3 + 4 +

                    x4
e|-------0------------||
B|-----------3--------||
G|-----2---------2--o-||
D|-0----------------o-||
A|--------------------||
D|--------------------||
   1 + 2 + 3 + 4 +

Breakdown:

(part 1)
e|-----------------|-----------------|-----------------|-------------------|
B|-----------------|-----------------|-----------------|-------------------|
G|-----------------|-----------------|-----------------|-------------------|
D|-----------------|-----------------|-----------------|-----------6-------|
A|-0-----0-1-0---0-|---0---0-1-0-1-0-|---0---0-1-0---0-|---------6---6-----|
D|-0-----0-1-0---0-|---0---0-1-0-1-0-|---0---0-1-0---0-|---0h5-6-------7-6-|
   1 + 2 + 3 + 4 +   1 + 2 + 3 + 4 +   1 + 2 + 3 + 4 +   1 +   2 + 3 + 4 +

e|-----------------|-----------------|-----------------|-------------------|
B|-----------------|-----------------|-----------------|-------------------|
G|-----------------|-----------------|-----------------|-------------------|
D|-----------------|-----------------|-----------------|-----------6-------|
A|---0---0-1-0---0-|---0---0-1-0-1-0-|---0---0-1-0---0-|---------6---6-----|
D|---0---0-1-0---0-|---0---0-1-0-1-0-|---0---0-1-0---0-|---0h5-6-------7-6-|
   1 + 2 + 3 + 4 +   1 + 2 + 3 + 4 +   1 + 2 + 3 + 4 +   1 +   2 + 3 + 4 +

e|-----------------|-----------------|-----------------|-------------------|
B|-----------------|-----------------|-----------------|-------------------|
G|-----------------|-----------------|-----------------|-------------------|
D|-----------------|-----------------|-----------------|-----------6-------|
A|---0---0-1-0---0-|---0---0-1-0-1-0-|---0---0-1-0---0-|---------6---6-----|
D|---0---0-1-0---0-|---0---0-1-0-1-0-|---0---0-1-0---0-|---0h5-6-------7-6-|
   1 + 2 + 3 + 4 +   1 + 2 + 3 + 4 +   1 + 2 + 3 + 4 +   1 +   2 + 3 + 4 +

e|-----------------|-----------------|-----------------|-------------------|
B|-----------------|-----------------|-----------------|-------------------|
G|-----------------|-----------------|-----------------|-------------------|
D|-----------------|-----------------|-----------------|-----------6-------|
A|---0---0-1-0---0-|---0---0-1-0-1-0-|---0---0-1-0---0-|---------6---6-----|
D|---0---0-1-0---0-|---0---0-1-0-1-0-|---0---0-1-0---0-|---0h5-6-------7-6-|
   1 + 2 + 3 + 4 +   1 + 2 + 3 + 4 +   1 + 2 + 3 + 4 +   1 +   2 + 3 + 4 +


(part 2)
e|-----------------|-----------------|-----------------|-----------------|
B|-----------------|-----------------|-----------------|-----------------|
G|-----------------|-----------------|-----------------|-----------------|
D|-----5---4-----5-|---4-------------|-----5---4-----5-|---4-------------|
A|-----6---5-----6-|---5-------------|-----6---5-----6-|---5-------6-5---|
D|-0-0---0-----0---|-0---0-0-0-0-0-0-|-0-0---0-----0---|-0---0-6-7-----6-|
   p p   p     p     p   p p p p p p   p p   p     p     p   p
   1 + 2 + 3 + 4 +   1 + 2 + 3 + 4 +   1 + 2 + 3 + 4 +   1 + 2 + 3 + 4 +

e|-----------------|-----------------|-----------------|------------------|
B|-----------------|-----------------|-----------------|------------------|
G|-----------------|-----------------|-----------------|-------------10~--|
D|-----5---4-----5-|---4-------------|-----5---4-------|---7-6-----9------|
A|-----6---5-----6-|---5-------------|-----6---5-----7-|-8-----7-8--------|
D|-0-0---0---0-0---|-0---0-0-0-0-0-0-|-0-0---0---0-0---|------------------|
   p p   p   p p     p   p p p p p p   p p   p   p p
   1 + 2 + 3 + 4 +   1 + 2 + 3 + 4 +   1 + 2 + 3 + 4 +   1 + 2 + 3 + 4  +


(part 3)
e|-----------------|-----------------|-----------------|-----------------|
B|-----------------|-----------------|-----------------|-----------------|
G|-----------------|-----------------|-----------------|---------5-5-7-7-|
D|-----------------|-----------------|-3-3-3-5-5-5-6-6-|-6-7-7-7---------|
A|-5-5-5-----------|---------3-3-5-5-|-----------------|-----------------|
D|-------5-5-5-6-6-|-6-7-7-7---------|-----------------|-----------------|
   1 + 2 + 3 + 4 +   1 + 2 + 3 + 4 +   1 + 2 + 3 + 4 +   1 + 2 + 3 + 4 +

e|-----------------|-----------------|-----------------|-----------------|
B|-----------------|-----------------|-----------------|-----------------|
G|-----------------|-----------------|-----------------|---------5-5-7-7-|
D|-----------------|-----------------|-3-3-3-5-5-5-6-6-|-6-7-7-7---------|
A|-5-5-5-----------|---------3-3-5-5-|-----------------|-----------------|
D|-------5-5-5-6-6-|-6-7-7-7---------|-----------------|-----------------|
   1 + 2 + 3 + 4 +   1 + 2 + 3 + 4 +   1 + 2 + 3 + 4 +   1 + 2 + 3 + 4 +

e|-----------------|-----------------|-----------------|-----------------|
B|-----------------|-----------------|-----------------|-----------------|
G|-7-7-7-7-7-7-7-7-|-7-7-7-7-7-6-5---|-7-7-7-6-6-6-5-5-|-5---------------|
D|-----------------|---------------7-|-----------------|---7-7-7-6-5-----|
A|-----------------|-----------------|-----------------|-------------8-5-|
D|-----------------|-----------------|-----------------|-----------------|
   1 + 2 + 3 + 4 +   1 + 2 + 3 + 4 +   1 + 2 + 3 + 4 +   1 + 2 + 3 + 4 +

e|-----------------|-----------------|-----------------|-----------------|
B|-----------------|-----------------|-----------------|-----------------|
G|-----------------|-----------------|-----------------|---------5-5-7-7-|
D|-----------------|-----------------|-3-3-3-5-5-5-6-6-|-6-7-7-7---------|
A|-3-5-5-----------|---------3-3-5-5-|-----------------|-----------------|
D|-------5-5-5-6-6-|-6-7-7-7---------|-----------------|-----------------|
   1 + 2 + 3 + 4 +   1 + 2 + 3 + 4 +   1 + 2 + 3 + 4 +   1 + 2 + 3 + 4 +

            
            
Suggest correction
Creating personal tab
Creating personal tab
You can edit any tab online and save it as your Personal.

You can edit, replace or remove any tab part or add personal notes – all changes will be seen only by you.

Personal tabs can be accessed anytime from any device, even offline.
Learn more »
Give kudos to tab author, rate the tab!
1 2 3 4 5
comments
print report bad tab
guest
You may want to rate the tab now too:
select rating
Wanna post a correction for this tab? Suggest correction