Oops, an error
Loading. Please wait.

Blackest Eyes bass

version 1
version 1

Whole song

Interactive

10,005 views 3 this week
2 commentsread comments
1 2 3 4 5
x 4
add to favorites
×
Save as Personal and add changes to this tab that will be seen only by you. Learn more ›
×
You can save this tab as Personal to edit and correct it or add notes. All changes will be seen only by you. Learn more »
launch autoscroll
font size
0
reset
guitar tuner
edit
Autoscroll
slow
fast
+/-
esc
set tempo
stop
Author
Difficulty
Porcupine Tree - Blackest Eyes

Tabbed By: Vonschnappi
Tuning: Standard

Intro
G|---------7--------7-7----------------------------------------------|
D|----0-0-----00-0---------------------------------------------------|
A|-------------------------------------------------------------------|
E|-------------------------------------------------------------------|


Verse 1
G|------------7------6------5------7-------------7------6------5-----|
D|-------------------------------------------------------------------|
A|875-875-85-----444---4\3----3\5-----875-875-85-----444----3--------|
E|-----------------------------------------------------------------1-|
00:21

Bridge1
G|-----------------5-7-5---------------------------5-7-5-------------|
D|--------55-66-7---------8-7-5------------55-66-7-------8-7-5h7-----|
A|-55-88-------------------------8-7-55-88-----------------------55--|
E|-------------------------------------------------------------------|
00:42

G|--------------5-7-5------------7-----------------------------------|
D|-----55-66-7--------8-7-5------------------------------------------|
A|-88-----------------------8-5--------------------------------------|
E|-------------------------------------------------------------------|


Riff 1
G|-------------------------------------------------------------------|
D|-------------------------------------------------------------------|
A|--8—-8-8—-7--7-7--5-55—5-55---8—-8-8—-7--7-7--5-55—5-55------------|
E|-------------------------------------------------------------------|
00:53

Chorus
G|-------------------------------------------------------------------|
D|-------------------------------------------------------------------|
A|-----------7---7-7------------7---7-7------------7--7-7---1--3--5--|
E|--5---5-5------------5--5-5-------------5---5-5--------------------|
01:33

Bridge2
G|-------------------------------------------------------------------|
D|-------------------------------------------------------------------|
A|---5-5—55\888---5-5-5\333--5-5—55\888--5-5-5\333-------------------|
E|-------------------------------------------------------------------|
01:54

Riff 2
G|-------------------------------------------------------------------|
D|-------------------------------------------------------------------|
A|8-8----88----7-7---77--5-5----55-----------------------------------|
E|----8------------7---------5---------------------------------------|
02:04

Chorus
G|-------------------------------------------------------------------|
D|-------------------------------------------------------------------|
A|-----------7---7-7------------7---7-7------------7--7-7---1--3--5--|
E|--5---5-5------------5--5-5-------------5---5-5--------------------|
02:24


Verse 2
G|----------------77--------7-----------77-------------------77-------|
D|--------------------------------------------------------------------|
A|-875-875-85--5-------555-----55---5--------875-875-85--5--------555-|
E|--------------------------------------------------------------------|
02:43

G|--7----------77-----------------77------7-----------7--------------|
D|-------------------------------------------------------------------|
A|-----55---5------875-875-85--5------555-----55---5-----5--6--78----|
E|-------------------------------------------------------------------|
02:55

Chorus (Coda?) No Actual bass here, the bass is generated by the Hammond organ
G|--------------------------------------------------------------------|
D|--------------------------------------------------------------------|
A|------------------7----------------5--------------------------------|
E|---------------------------------------------------------------5----|
03:14

G|-------------------------------------------------------------------|
D|-------------------------------------------------------------------|
A|----------8---------------------7-------------------5--------------|
E|-------------------------------------------------------------------|

G|-------------------------------------------------------------------|
D|-------------------------------------------------------------------|
A|----------7-------------------7-----------------7------1---3---5---|
E|---5---------------5--------------------5--------------------------|

Verse 1
G|------------7------6------5------7-------------7------6------5-----|
D|-------------------------------------------------------------------|
A|875-875-85-----444---4\3----3\5-----875-875-85-----444----3--------|
E|-----------------------------------------------------------------1-|
03:50

Bridge1
G|-----------------5-7-5---------------------------5-7-5-------------|
D|--------55-66-7---------8-7-5------------55-66-7-------8-7-5h7-----|
A|-55-88-------------------------8-7-55-88-----------------------55--|
E|-------------------------------------------------------------------|
04:13

G|--------------5-7-5------------7-----------------------------------|
D|-----55-66-7--------8-7-5------------------------------------------|
A|-88-----------------------8-5--------------------------------------|
E|-------------------------------------------------------------------|


Order:
Intro X8
Verse1 X2
Bridge1 X1
Riff1 X2
Chorus X1
Bridge2 X1
Riff2 X1
Chorus X1
Verse2 X1
Chorus (Coda?)X1
Verse1 X1
Bridge1 X1

Chorus Lines hold the minimun in terms of ear transcribing tabs. It holds the basics, so 
to put an additional effort to figure out what sort of floor bass improvisition Edwin 
with Erisson.
Enjoy!
Suggest correction
Creating personal tab
Creating personal tab
You can edit any tab online and save it as your Personal.

You can edit, replace or remove any tab part or add personal notes – all changes will be seen only by you.

Personal tabs can be accessed anytime from any device, even offline.
Learn more »
comments
print report bad tab
2 comments total.
+1 reply
benonbass1 110 Jan 10, 2009 12:30 PM

I know for sure the guitar is in drop-D, so im geussing the bass is as well, but I'm not entirely sure...

0 reply
schobersound 10 Apr 21, 2012 09:07 AM

I'm not sure if you have the correct register for the beginning part, but the notes are there.

I'm not sure that the part you refer to as Bridge 1 is entirely correct. Here is what I'm hearing.

G|-----------------5-7-5---------------------------5-7-5-------------|
D|--------55-66-7---------5-7-5---5--------55-66-7-------5-7-5----5--|
A|-55-88-------------------------8---55-88-----------------------8---|
E|-------------------------------------------------------------------|

G|------------------5-7-5-------------7------------------------------|
D|---------55-66-7--------5-7-5---5----------------------------------|
A|-55--88-----------------------8---5--------------------------------|
E|-------------------------------------------------------------------|


Again, I'm not sure if this is the correct register, or if it's being played down the octave.

guest
You may want to rate the tab now too:
select rating
Wanna post a correction for this tab? Suggest correction