Oops, an error
Loading. Please wait.

Fear Of A Blank Planet bass

version 1
version 1

Whole song

Interactive

10,472 views 6 this week
2 commentsread comments
1 2 3 4 5
x 4
add to favorites
×
Save as Personal and add changes to this tab that will be seen only by you. Learn more ›
×
You can save this tab as Personal to edit and correct it or add notes. All changes will be seen only by you. Learn more »
launch autoscroll
font size
0
reset
guitar tuner
backing track
0:00
0:00
edit
Autoscroll
slow
fast
+/-
esc
set tempo
stop
Author
Verse

  Q    E  E  E  E  Q    E  E  E  E   
------------------------------------|
------------------------------------|
-------5-----------5-------5-----5--|
--0-------0-----0-------0-----0-----|  X5


  Q    E  E  E  E  Q    E  E  E  E       
------------------------------------|
-------6-----------6-------6-----6--|
------------------------------------|
--6-------6-----6-------6-----6-----|


  Q    E  E  E  E  Q    E  E  E  E   
------------------------------------|
-------5-----------5-------5-----5--|
------------------------------------|
--5-------5-----5-------5-----5-----|

  Q    E  E  E  E  Q    E  E  E  E   
------------------------------------|
-------3-----------3-------3-----3--|
------------------------------------|
--3-------3-----3-------3-----3-----|


Chorus

  Q    E  E  E  E  Q      
------------------------|
------------------------|
-------5-----------5----|
--5-------5-----5-------|  X2


  Q    E  E  E  E  E  E   
------------------------|
------------------------|
-------1-----------1----|
--1-------1-----1-----1-|  X2


   Q     E   E  E   E   E   E        
-------------------------------|
-------------------------------|
--------10-------------10------|
--10--------10-----10------10--|  X2


  Q    E  E  E  E  E  E      
-------------------------|
-------------------------|
-------6-----------6-----|
--6-------6-----6-----6--|  X2


Bridge 1  X2

  Q.     Q    E  Q    E  E     Q.     Q    E  Q    E  E  
----------------------------|----------------------------|
----------------------------|----------------------------|
----------------------------|----------------------------|
--0------0----0--0----0--0--|--8------8----8--8----8--8--|


   Q.     Q    E  Q    E  E     Q.     Q.     Q     Q    
----------------------------|---------------------------|
----------------------------|---------------------------|
----------------------------|---------------------------|
--5------5----5--5----5--5--|--3------5------8----10----|


Bridge 2  X4

  E  E   E  E   E  E  E  Q        E  E  E  E  E  E  Q   
----------------------------|--------------------------|
----------------------------|--------------------------|
---------5------4-----------|--------3-----2-----------|
--0--0------0------0--0--3--|-----4-----4-----3--0--6--|


     E  E  Q    E   E   E      E   E   E   Q     E   E   E   
---------------------------|--------------------------------|
---------------------------|-------6-------5-----5-------5--|
------------------------3--|---5-------5-------------5------|
-----6--0--5----5---0------|--------------------------------|


Outro

  Q.     Q.     Q.     Q.        W.                
------------------------------|-------------------|
------------------------------|-------------------|
---------0------5------0------|-------------------|
--0---------------------------|--0----------------|


            
            
Suggest correction
Creating personal tab
Creating personal tab
You can edit any tab online and save it as your Personal.

You can edit, replace or remove any tab part or add personal notes – all changes will be seen only by you.

Personal tabs can be accessed anytime from any device, even offline.
Learn more »
comments
print report bad tab
2 comments total.
0 reply
Satan Man 1,286 Oct 17, 2008 09:04 AM

Tuning?

0 reply
ashley-morton 10 Nov 21, 2008 06:10 AM

D A D G probably

guest
You may want to rate the tab now too:
select rating
Wanna post a correction for this tab? Suggest correction